PrimaNota.ru - самый крупный в мире бесплатный архив песенных текстов, аккордов, табулатур и нот


Bitch Alert - Latenight Lullaby - текст песни, таба, видео

Регистрация Запомнить меня
Войти через:  Facebook Google Twitter Vk Yandex Mail.ru

Bitch Alert - Latenight Lullaby - текст песни, таба, видео

Печатать
Просмотров: 130
.-------------------------------------------.
| Artist        : Bitch Alert               |
| Album         : Kill Your darlings        |
| Track         : Late Night Lullaby        |
|-------------------------------------------|
| Tabbed by     : Ricky Thomson             |
| Date          : Thu 12th April 2012       |
| Contact Email : punkalert@gmail.com       |
'-------------------------------------------'

This should be close enough to the way heinie plays it, sounds
perfect enough for me. If you find anything wrong with the tab send me
an email, cheers! (ps, this is the first tab i have ever written!)


Tuning: standard

/ = slide up
\ = slide down
b = bend



[riff one]

e|--0-0-7-0-0-7-0-0-4-0-0-5-0-0-4-5--|
B|-----------------------------------|
G|-----------------------------------|
D|-----------------------------------|
A|-----------------------------------|
E|-----------------------------------|



[chorus]

e|------------------------------------------------------------------------------|
B|------------------------------------------------------------------------------|
G|----------------------------------------444----------------444----------------|
D|--666-2-22--22-222---777-2-22--22-222---444-2-22--22-222---444-2-22---222222--|
A|--666-2-22--22-222---777-2-22--22-222---222-2-22--22-222---222-2-22---222222--|
E|--444-0-00--00-000---555-0-00--00-000-------0-00--00-000-------0-00---000000--|



[verse]

e|---------------------------------------------------------------------|
B|---------------------------------------------------------------------|
G|---------------------------------------------------------------------|
D|--22-222-222-222---44-444-444-444---66-666-666-666---77-777-777-777--|
A|--22-222-222-222---44-444-444-444---66-666-666-666---77-777-777-777--|
E|--00-000-000-000---22-222-222-222---44-444-444-444---55-555-555-555--|

e|--------------------------------------------------------------------------|
B|--------------------------------------------------------------------------|
G|--------------------------------------------------------------------------|
D|--99-999-999-999---1111-111111-111111-111111---1313-131313-131313-131313--|
A|--99-999-999-999---1111-111111-111111-111111---1313-131313-131313-131313--|
E|--77-777-777-777----9-9--9-9-9--9-9-9--9-9-9---1111-111111-111111-111111--|

e|---------------------------------|
B|---------------------------------|
G|---------------------------------|
D|--1414-141414141414141414141414--|
A|--1414-141414141414141414141414--|
E|--1212-121212121212121212121212--|



[solo]

e|--12---12\7--7/9-9b---9\4-4-4--4/7--0-0---0000--12---12/7--7/9-9b---9\4-4-4--4/7--0-0--|
B|---------------------------------------------------------------------------------------|
G|---------------------------------------------------------------------------------------|
D|---------------------------------------------------------------------------------------|
A|---------------------------------------------------------------------------------------|
E|---------------------------------------------------------------------------------------|



[riff two]

e|--0-0-7-0-0-7-0-0-7-0-0-7--12-12-12-12-|
B|---------------------------------------|
G|---------------------------------------|
D|---------------------------------------|
A|---------------------------------------|
E|---------------------------------------|



[outro]

e|--0-0-12-0-0-7-0-0-4-0-0-5-0-0-4-5--|
B|------------------------------------|
G|------------------------------------|
D|------------------------------------|
A|------------------------------------|
E|------------------------------------|


Order:
 - riff one [x4]
 - chorus
 - verse *
 - chorus [x2]
 - verse *
 - chorus [x2]
 - riff one [x8]
 - solo
 - chorus [x2]
 - riff one [x3]
 - riff two 
 - riff one [x3]
 - riff two
 - outro [x4]

* verse is played clean (no distortion)


After the outro riff, the song ends on this note:
e|--0-|
B|----|
G|----|
D|----|
A|----|
E|----|


Have fun playing it :-)
Добавлено: 30.07.2013
Другие материалы по этой песне:
  • Аккорды и текст

Страница создана 18.07.2012
http://primanota.ru/bitch-alert/latenight-lullaby-chords.htm
Привет, Гость.
Предлагаем пройти революционный курс по гитаре.
Подарок от PrimaNota.Ru, забирай!