PrimaNota.ru - самый крупный в мире бесплатный архив песенных текстов, аккордов, табулатур и нот


Bitch Alert - Kiss Me - таба, видео

Регистрация Запомнить меня
Войти через:  Facebook Google Twitter Vk Yandex Mail.ru

Bitch Alert - Kiss Me - таба, видео

Печатать
Просмотров: 124
.-------------------------------------------.
| Artist        : Bitch Alert               |
| Album         : Pay For Orgasm            |
| Track         : Kiss Me                   |
|-------------------------------------------|
| Tabbed by     : Ricky Thomson             |
| Date          : Thu 17th April 2012       |
| Contact Email : punkalert@gmail.com       |
'-------------------------------------------'

Tuning: standard

\ = slide down


[intro]

    E E E F       E E E F       E E E F       E E E F
e|------------------------------------------------------|
B|------------------------------------------------------|
G|------------------------------------------------------|
D|------------\-------------\-------------\-------------|
A|------------\-------------\-------------\-------------|
E|--0-0-0-1-------0-0-0-1-------0-0-0-1-------0-0-0-1---|


[bridge]

e|-------------------------------------------------------------|
B|-------------------------------------------------------------|
G|----------------------------------------------------x-x-x----|
D|--2-2-2-3-3-3-3-2-2-2-3-3-3-3-2-2-2-3-3-3-3-2-2-2-3-x-x-x----|
A|--2-2-2-3-3-3-3-2-2-2-3-3-3-3-2-2-2-3-3-3-3-2-2-2-3-x-x-x----|
E|--0-0-0-1-1-1-1-0-0-0-1-1-1-1-0-0-0-1-1-1-1-0-0-0-1-x-x-x----|


[verse]

e|-------------------------------------------------------------|
B|-------------------------------------------------------------|
G|-------------------------------------------------------------|
D|--2-2-2-3--x-x--2-2-2-3--x-x--2-2-2-3--x-x--2-2-2-3-3-3-3-3--|
A|--2-2-2-1--x-x--2-2-2-1--x-x--2-2-2-3--x-x--2-2-2-3-3-3-3-3--|
E|--0-0-0-1--x-x--0-0-0-1--x-x--0-0-0-1--x-x--0-0-0-1-1-1-1-1--|


[chorus]

e|------------------||-----------------------------------||
B|------------------||-----------------------------------||
G|------------------||--9-99-9-9--7-7-7------------------||
D|--7--7-7-9-9-9-9--||--9-99-9-9--7-7-7--7--7-7-9-9-9-9--||
A|--7--7-7-9-9-9-9--||--7-77-7-7--5-5-5--7--7-7-9-9-9-9--||
E|--5--5-5-7-7-7-7--||-------------------5--5-5-7-7-7-7--||



Order:
 - intro
 - bridge 
 - verse [x2]
 - chorus [x2]
 - bridge
 - verse [x2]
 - chorus [x2]
 - bridge [x2]


Final chord: 
e|-----------|
B|-----------|
G|-----------|
D|--2--------|
A|--2--------|
E|--0--------|

Добавлено: 11.09.2013
Другие материалы по этой песне:
  • Аккорды и текст

Страница создана 02.06.2013
http://primanota.ru/bitch-alert/kiss-me-chords.htm
Привет, Гость.
Предлагаем пройти революционный курс по гитаре.
Подарок от PrimaNota.Ru, забирай!