PrimaNota.ru - самый крупный в мире бесплатный архив песенных текстов, аккордов, табулатур и нот


Bitch Alert - In The School - таба, видео

Регистрация Запомнить меня
Войти через:  Facebook Google Twitter Vk Yandex Mail.ru

Bitch Alert - In The School - таба, видео

Печатать
Просмотров: 84
.-------------------------------------------.
| Artist        : Bitch Alert               |
| Album         : Pay For Orgasm            |
| Track         : In The School             |
|-------------------------------------------|
| Tabbed by     : Ricky Thomson             |
| Date          : Thu 17th April 2012       |
| Contact Email : punkalert@gmail.com       |
'-------------------------------------------'

Awesome record, very easy to play.

Tuning: standard


[intro]

e|--------------------------|
B|--------------------------|
G|--0-----------------------|
D|--0-----------------------|
A|--0-----------------------|
E|--0-----------------------|


[bridge]

e|------------------------|
B|------------------------|
G|--8-8-888-88-------000--|
D|--8-8-888-88-888-7-000--|
A|--6-6-666-66-888-7-000--|
E|-------------666-5-000--|

[chords]

e|------------------------|
B|------------------------|
G|--8-8-888-88------------|
D|--8-8-888-88-888-77-77--|
A|--6-6-666-66-888-77-77--|
E|-------------666-55-55--|

Order:
 - intro
 - bridge [x4]
 - chords [x12]
 - bridge [x4]
 - chords [x16]
 - bridge [x4]


The song end's on this:
e|--------------------------|
B|--------------------------|
G|--8-----------8-----------|
D|--8-----------8-----------|
A|--6-----------6-----------|
E|--------------------------|


Enjoy :-)
Добавлено: 04.09.2013
Другие материалы по этой песне:
  • Аккорды и текст

Страница создана 04.09.2013
http://primanota.ru/bitch-alert/in-the-school-chords.htm
Привет, Гость.
Предлагаем пройти революционный курс по гитаре.
Подарок от PrimaNota.Ru, забирай!