PrimaNota.ru - самый крупный в мире бесплатный архив песенных текстов, аккордов, табулатур и нот


Bitch Alert - Heroine - таба, видео

Регистрация Запомнить меня
Войти через:  Facebook Google Twitter Vk Yandex Mail.ru

Bitch Alert - Heroine - таба, видео

Печатать
Просмотров: 195
Уроки эстрадного вокала в Санкт-Петербурге
-----------------------------------------------------------------
	Band: Bitch Alert - www.bitchalert.org
	Song: Heroine (..rriot album)
-----------------------------------------------------------------


(Intro + Verse*)

     A5	G5	 E5	  D5
 e||----------------------------||  x4
 H||----------------------------||
 G||---------------9-999--7777--||
 D||-7-777--5555---9-999--7777--||
 A||-7-777--5555---7-777--5555--||
 E||-5-555--3333----------------||

 *Verses without distortion


(chorus)

    E5     D5     A5     G5
 ||----------------------------||   1. x4½
 ||----------------------------||   2. x8
 ||-9-999--7777----------------||   3. x8
 ||-9-999--7777---7-777--5555--||
 ||-7-777--5555---7-777--5555--||
 ||---------------5-555--3333--||


(c-part)

     E5    D5    A5    H5    E5    D5     A5      G5
 ||---------------------------------------------------||
 ||---------------------------------------------------||
 ||--9-----7-----------------9-----7------------------||
 ||--9-----7-----7-----9-----9-----7-----7--7----5--5-||
 ||--7-----5-----7-----9-----7-----5-----7--7----5--5-||
 ||--------------5-----7-----------------5--5----3--3-||

Добавлено: 23.07.2012
Другие материалы по этой песне:
  • Аккорды и текст

Страница создана 23.07.2012
http://primanota.ru/bitch-alert/heroine-chords.htm
Привет, Гость.
Предлагаем пройти революционный курс по гитаре.
Подарок от PrimaNota.Ru, забирай!