PrimaNota.ru - самый крупный в мире бесплатный архив песенных текстов, аккордов, табулатур и нот


Bitch Alert - God Doesnt Like Me - таба, видео

Регистрация Запомнить меня
Войти через:  Facebook Google Twitter Vk Yandex Mail.ru

Bitch Alert - God Doesnt Like Me - таба, видео

Печатать
Просмотров: 78
.-------------------------------------------.
| Artist        : Bitch Alert               |
| Album         : ..riot                    |
| Track         : God Doesn't Like Me       |
|-------------------------------------------|
| Tabbed by     : Ricky Thomson             |
| Date          : Thu 16th April 2012       |
| Contact Email : punkalert@gmail.com       |
'-------------------------------------------'

If you find anything wrong with the tab send me an email, cheers!
I'm not too sure about the second guitar part which comes in
towards the end of the song, if i find out later i'll put it up here.

Tuning: standard

/ = slide up
\ = slide down
b = bend

[riff one]

e|---------------------------------------------------------------------------------|
B|---------------------------------------------------------------------------------|
G|---------------------------------------------------------------------------------|
D|--9-9-9-------------------------------------9-9-9--------------------------------|
A|--------7------------9-9-9-7-7--------------------7------------9-9-9-7-7---------|
E|----------00-0-00--------------0-0-0-0--------------00-0-00-----------------0-0--|


[chords]

e|-----------------------------------------------------------------|
B|-----------------------------------------------------------------|
G|--9--9--9-99-99\5--5--5-55-55/7--7--7-77-77/9--9--9999--555-7-7--|
D|--9--9--9-99-99\5--5--5-55-55/7--7--7-77-77/9--9--9999--555-7-7--|
A|--7--7--7-77-77\3--3--3-33-33/5--5--5-55-55/7--7--7777--333-5-5--|
E|-----------------------------------------------------------------|


[riff two]

e|------------------|
B|------------------|
G|------------------|
D|------------------|
A|--7-9-9b--7-9-9b--|
E|------------------|

Order:
 - riff one [x2]
 - chords [x2]
 - riff one [x2]
 - chords [x6]
 - riff one
 - riff two
 - riff one
 - riff two


Then the track finishes on this:
e|----------------------|
B|----------------------|
G|----------------------|
D|--9-9-9---------------|
A|--------7-------------|
E|----------00-0--------|


Enjoy :-)
Добавлено: 01.10.2013
Другие материалы по этой песне:
  • Аккорды и текст

Страница создана 09.09.2013
http://primanota.ru/bitch-alert/god-doesnt-like-me-chords.htm
Привет, Гость.
Предлагаем пройти революционный курс по гитаре.
Подарок от PrimaNota.Ru, забирай!