PrimaNota.ru - самый крупный в мире бесплатный архив песенных текстов, аккордов, табулатур и нот


Bitch Alert - Gas - таба, видео

Регистрация Запомнить меня
Войти через:  Facebook Google Twitter Vk Yandex Mail.ru

Bitch Alert - Gas - таба, видео

Печатать
Просмотров: 45
Уроки эстрадного вокала в Санкт-Петербурге
-------------------------------------------------------------------------------
                             Gas - Bitch Alert
-------------------------------------------------------------------------------

Tabbed by: Ricky Thomson
E-mail: warzone@gmx.co.uk

Tuning: Standard


[intro]
e||--------------------------------||
B||--------------------------------||
G||--------------------------------|| x3
D||--------------------------------||
A||----7~~--5---------7~~--5-------||
E||--0----0----6----0----0----6-3--||

e|--------------------------------------|
B|--------------------------------------|
G|--------------------------------------|
D|--------------------------------------|
A|---------8-7br(8)(7)-----8-7br(8)(7)--|
E|--0---6-----------0---6---------------|


[verse]
e|-----------------------------------------------------------|
B|-----------------------------------------------------------|
G|-----------------------------------------------------------|
D|-----------------------------------------------------------|
A|--8--8-7--7-7-7-3--3-1--1-1-1-8--8-7--7-7-7-4--4-3--3-3-3--|
E|--0--0-0--0-0-0-0--0-0--0-0-0-0--0-0--0-0-0-0--0-0--0-0-0--|

e|-----------------------------------------------------------|
B|-----------------------------------------------------------|
G|-----------------------------------------------------------|
D|-----------------------------------------------------------|
A|--8--8-7--7-7-7-2--2-1--1-1-1-8--8-7--7-7-7-3--3-1--0-0-0--|
E|--0--0-0--0-0-0-0--0-0--0-0-0-0--0-0--0-0-0-0--0-0--0-0-0--|


[chorus]
e||-----------------||       e||-----------------||
B||-----------------||       B||-----------------||
G||--9-9-9--7-------|| x4    G||--9-999--7-------|| x4
D||--9-9-9--7--8-8--||       D||--9-999--7--8-8--||
A||--7-7-7--5--8-8--||       A||--7-777--5--8-8--||
E||------------6-6--||       E||------------6-6--||


[fill]
e|--------------------------------------------------------------|
B|--7-7-7-7--9---------------------------7--9-------------------|
G|-------------9--9-9\7-7-7-9-6--6-6----------9--9-9\7-7-7-9-6--|
D|--------------------------------------------------------------|
A|--------------------------------------------------------------|
E|--------------------------------------------------------------|

e|-------------------------------------------------------------------|
B|-------------------------------------------------------------------|
G|-------------------------------------------------------------------|
D|-------------------------------------------------------------------|
A|----7~~--5---------7~~--5-------------8-7br(8)(7)-----8-7br(8)(7)--|
E|--0----0----6----0----0----6-3-0---6-----------0---6---------------|


[verse two]
e|-----------------------------------------------------------|
B|-----------------------------------------------------------|
G|-----------------------------------------------------------|
D|-----------------------------------------------------------|
A|--8--8-7--7-7-7-3--3-1--1-1-1-8--8-7--7-7-7-4--4-3--3-3-3--|
E|--0--0-0--0-0-0-0--0-0--0-0-0-0--0-0--0-0-0-0--0-0--0-0-0--|

e|-----------------------------------------------------------|
B|-----------------------------------------------------------|
G|-----------------------------------------------------------|
D|-----------------------------------------------------------|
A|--8--8-7--7-7-7-2--2-1--1-1-1-8--8-7--7-7-7-3--3-1--0-0-0--|
E|--0--0-0--0-0-0-0--0-0--0-0-0-0--0-0--0-0-0-0--0-0--0-0-0--|


[chorus]
e||-----------------||       e||-----------------||
B||-----------------||       B||-----------------||
G||--9-9-9--7-------|| x4    G||--9-999--7-------|| x4
D||--9-9-9--7--8-8--||       D||--9-999--7--8-8--||
A||--7-7-7--5--8-8--||       A||--7-777--5--8-8--||
E||------------6-6--||       E||------------6-6--||


[fill]
e|--------------------------------------------------------------|
B|--7-7-7-7--9---------------------------7--9-------------------|
G|-------------9--9-9\7-7-7-9-6--6-6----------9--9-9\7-7-7-9-6--|
D|--------------------------------------------------------------|
A|--------------------------------------------------------------|
E|--------------------------------------------------------------|


[outro]
e||-------------------------------------------||
B||-------------------------------------------||
G||--11-11-11-9--9-9-9-16-16-16-14--14-14-14--|| x4
D||--11-11-11-9--9-9-9-16-16-16-14--14-14-14--||
A||--9--9--9--7--7-7-7-14-14-14-12--12-12-12--||
E||-------------------------------------------||

then a second guitar comes in...
(guitar 1)
e||-------------------------------------------||
B||-------------------------------------------||
G||--11-11-11-9--9-9-9-16-16-16-14--14-14-14--|| x4  <--------------.
D||--11-11-11-9--9-9-9-16-16-16-14--14-14-14--||                    |
A||--9--9--9--7--7-7-7-14-14-14-12--12-12-12--||                          
E||-------------------------------------------||           played at the same time

(guitar 2)                                                          |
e||--------------------------------||                               |
B||--7-7--9------------------------||                               |
G||---------9--9-9\7-7-7-9-6--6-6--|| x4   <------------------------'
D||--------------------------------||      
A||--------------------------------||
E||--------------------------------||


[end]
e|-------------------------------------------|
B|-------------------------------------------|
G|--9----------------------------------------|
D|--9----------------------------------------|
A|--7----------------------------------------|
E|-------------------------------------------|


************************************

| /   slide up
| \   slide down
| h   hammer-on
| p   pull-off
| ~   vibrato
| +   harmonic
| x   Mute note
| b   Bend
| pb  Pre-bend
| br  Bend release
| pbr Pre-bend release
| brb Bend release bend

************************************
Добавлено: 19.06.2016
Другие материалы по этой песне:
  • Аккорды и текст

Страница создана 19.06.2016
http://primanota.ru/bitch-alert/gas-chords.htm
Привет, Гость.
Предлагаем пройти революционный курс по гитаре.
Подарок от PrimaNota.Ru, забирай!