PrimaNota.ru - самый крупный в мире бесплатный архив песенных текстов, аккордов, табулатур и нот


Bitch Alert - Excuse For Escape - таба, видео

Регистрация Запомнить меня
Войти через:  Facebook Google Twitter Vk Yandex Mail.ru

Bitch Alert - Excuse For Escape - таба, видео

Печатать
Просмотров: 104
.-------------------------------------------.
| Artist        : Bitch Alert               |
| Album         : Kill Your darlings        |
| Track         : Excuse For Escape         |
|-------------------------------------------|
| Tabbed by     : Ricky Thomson             |
| Date          : Thu 24th May 2012         |
| Contact Email : punkalert@gmail.com       |
'-------------------------------------------'


[verse]

e||------------------------------||
B||------------------------------||
G||---------------6-6---7-7-7-7--||
D||--2-2-2--4-4---6-6---7-7-7-7--||
A||--2-2-2--4-4---4-4---5-5-5-5--||
E||--0-0-0--2-2------------------||



[chorus]

e||------------------------------||
B||------------------------------||
G||-------4-4-4-4-------6-6-6-6--||
D||--4-4--4-4-4-4--4-4--6-6-6-6--||
A||--4-4--2-2-2-2--4-4--4-4-4-4--||
E||--2-2-----------2-2-----------||



[breakdown]

Listen out for the rhythm on this part:
e|-----------------------------------------------------------------------|
B|-----------------------------------------------------------------------|
G|-----------------------------------------------------------------------|
D|--4----------------2----------------7----------------9-----------------|
A|--4----------------2----------------7----------------9-----------------|
E|--2----------------0----------------5----------------7-----------------|



[bridge]

e||-----------------------------------------------------------------------||-----|
B||-----------------------------------------------------------------------||-----|
G||-----------------------------------------------------------------------||-----|
D||--4444444444444444-2222222222222222-7777777777777777-9999999999999999--||--9--|
A||--4444444444444444-2222222222222222-7777777777777777-9999999999999999--||--9--|
E||-----------------------------------------------------------------------||--7--|



Order
 - verse  [x4]
 - verse  [x8] *
 - chorus [x4]
 - verse  [x4]
 - verse  [x8] *
 - chorus [x8]
 - breakdown
 - bridge [x2] *
 - chorus [x8]
 
* play these parts clean (no distortion)



Final chord:

e|---------|
B|---------|
G|---------|
D|--4------|
A|--4------|
E|--2------|
 

 
Have fun ;-D
Добавлено: 19.11.2013
Другие материалы по этой песне:
  • Аккорды и текст

Страница создана 19.11.2013
http://primanota.ru/bitch-alert/excuse-for-escape-chords.htm
Привет, Гость.
Предлагаем пройти революционный курс по гитаре.
Подарок от PrimaNota.Ru, забирай!