PrimaNota.ru - самый крупный в мире бесплатный архив песенных текстов, аккордов, табулатур и нот


Bitch Alert - Big Brothers Secret - таба, видео

Регистрация Запомнить меня
Войти через:  Facebook Google Twitter Vk Yandex Mail.ru

Bitch Alert - Big Brothers Secret - таба, видео

Печатать
Просмотров: 81
.-------------------------------------------.
| Artist        : Bitch Alert               |
| Album         : ..riot                    |
| Track         : Big Brother's Secret      |
|-------------------------------------------|
| Tabbed by     : Ricky Thomson             |
| Date          : Thu 31st May 2012         |
| Contact Email : punkalert@gmail.com       |
'-------------------------------------------'

This is an awesome record! if i missed anything out,
or if you find an error, drop me an email, cheers! :)


[verse one] 

GUITAR 1 (clean)

     E                 F   F#       E                 F   F#
e||----------------------------------------------------------------||
B||----------------------------------------------------------------||
G||----------------------------------------------------------------||
D||--2-2-2-2-2-2-2-2-2-3-3-4-4-4-4--2-2-2-2-2-2-2-2-2-3-3-4-4-4-4--||
A||--2-2-2-2-2-2-2-2-2-3-3-4-4-4-4--2-2-2-2-2-2-2-2-2-3-3-4-4-4-4--||
E||--0-0-0-0-0-0-0-0-0-1-1-2-2-2-2--0-0-0-0-0-0-0-0-0-1-1-2-2-2-2--|| x3


GUITAR 1 (clean)

     E                 F   F#       E                 F   F#
e||----------------------------------------------------------------||
B||----------------------------------------------------------------||
G||----------------------------------------------------------------||
D||--2-2-2-2-2-2-2-2-2-3-3-4-4-4-4--2-2-2-2-2-2-2-2-2-3-3-4-4-4-4--||
A||--2-2-2-2-2-2-2-2-2-3-3-4-4-4-4--2-2-2-2-2-2-2-2-2-3-3-4-4-4-4--||
E||--0-0-0-0-0-0-0-0-0-1-1-2-2-2-2--0-0-0-0-0-0-0-0-0-1-1-2-2-2-2--|| x2


GUITAR 2 (distortion + tremelo effect)

     E                     F#       E
e||----------------------------------------------------------------||
B||----------------------------------------------------------------||
G||----------------------------------------------------------------||
D||--2---------------------4--------2------------------------------||
A||--2---------------------4--------2------------------------------||
E||--0---------------------2--------0------------------------------|| x2





[bridge]

GUITAR 1 (distortion)
GUITAR 2 (distortion)

    A                         A
e|-----------------------------------------------------|
B|-----------------------------------------------------|
G|-----------------------------------------------------|
D|--7-7-7-7-7-7-7-7-7-7-7-7--x7-7-7-7-7-7-7-7-7-7-7-7--|
A|--7-7-7-7-7-7-7-7-7-7-7-7--x7-7-7-7-7-7-7-7-7-7-7-7--|
E|--5-5-5-5-5-5-5-5-5-5-5-5--x5-5-5-5-5-5-5-5-5-5-5-5--| x1




[chorus]

GUITAR 1 (distortion)
GUITAR 2 (distortion)

     E             C                    D                    B
e||-------------------------------------------------------------------------||
B||-------------------------------------------------------------------------||
G||--9-9-9-9-9-9-9----------------------------------------------------------||
D||--9-9-9-9-9-9-9-10-10-10-10-10-10-10-12-12-12-12-12-12-12-9-9-9-9-9-9-9--||
A||--7-7-7-7-7-7-7-10-10-10-10-10-10-10-12-12-12-12-12-12-12-9-9-9-9-9-9-9--||
E||-----------------8--8--8--8--8--8--8-10-10-10-10-10-10-10-7-7-7-7-7-7-7--|| x2




[verse two]

GUITAR 1 (clean)

e||----------------------------------------------------------------||
B||----------------------------------------------------------------||
G||-----------------------9-9-9-9-------------------------9-9-9-9--||
D||--9-9-10-10----------------------9-9-10-10----------------------||
A||------------9-9-9--7-7---------------------9-9-9--7-7-----------||
E||----------------------------------------------------------------|| x2


GUITAR 2 (clean)

     E                 F   F#       E                 F   F#
e||----------------------------------------------------------------||
B||----------------------------------------------------------------||
G||----------------------------------------------------------------||
D||--2-2-2-2-2-2-2-2-2-3-3-4-4-4-4--2-2-2-2-2-2-2-2-2-3-3-4-4-4-4--||
A||--2-2-2-2-2-2-2-2-2-3-3-4-4-4-4--2-2-2-2-2-2-2-2-2-3-3-4-4-4-4--||
E||--0-0-0-0-0-0-0-0-0-1-1-2-2-2-2--0-0-0-0-0-0-0-0-0-1-1-2-2-2-2--|| x2



GUITAR 1 (clean)

     E                 F   F#       E                 F   F#
e||----------------------------------------------------------------||
B||----------------------------------------------------------------||
G||----------------------------------------------------------------||
D||--2-2-2-2-2-2-2-2-2-3-3-4-4-4-4--2-2-2-2-2-2-2-2-2-3-3-4-4-4-4--||
A||--2-2-2-2-2-2-2-2-2-3-3-4-4-4-4--2-2-2-2-2-2-2-2-2-3-3-4-4-4-4--||
E||--0-0-0-0-0-0-0-0-0-1-1-2-2-2-2--0-0-0-0-0-0-0-0-0-1-1-2-2-2-2--|| x4


GUITAR 2 (distortion + tremelo effect)

     E                     F#       E
e||----------------------------------------------------------------||
B||----------------------------------------------------------------||
G||----------------------------------------------------------------||
D||--2---------------------4--------2------------------------------||
A||--2---------------------4--------2------------------------------||
E||--0---------------------2--------0------------------------------|| x4





[bridge]

GUITAR 1 (distortion)
GUITAR 2 (distortion)

    A                         A
e|-----------------------------------------------------|
B|-----------------------------------------------------|
G|-----------------------------------------------------|
D|--7-7-7-7-7-7-7-7-7-7-7-7--x7-7-7-7-7-7-7-7-7-7-7-7--|
A|--7-7-7-7-7-7-7-7-7-7-7-7--x7-7-7-7-7-7-7-7-7-7-7-7--|
E|--5-5-5-5-5-5-5-5-5-5-5-5--x5-5-5-5-5-5-5-5-5-5-5-5--| x1




[chorus]

GUITAR 1 (distortion)
GUITAR 2 (distortion)

     E             C                    D                    B
e||-------------------------------------------------------------------------||
B||-------------------------------------------------------------------------||
G||--9-9-9-9-9-9-9----------------------------------------------------------||
D||--9-9-9-9-9-9-9-10-10-10-10-10-10-10-12-12-12-12-12-12-12-9-9-9-9-9-9-9--||
A||--7-7-7-7-7-7-7-10-10-10-10-10-10-10-12-12-12-12-12-12-12-9-9-9-9-9-9-9--||
E||-----------------8--8--8--8--8--8--8-10-10-10-10-10-10-10-7-7-7-7-7-7-7--|| x4





[bridge]

GUITAR 1 (distortion)
GUITAR 2 (distortion)

    A                         A
e|-----------------------------------------------------|
B|-----------------------------------------------------|
G|-----------------------------------------------------|
D|--7-7-7-7-7-7-7-7-7-7-7-7--x7-7-7-7-7-7-7-7-7-7-7-7--|
A|--7-7-7-7-7-7-7-7-7-7-7-7--x7-7-7-7-7-7-7-7-7-7-7-7--|
E|--5-5-5-5-5-5-5-5-5-5-5-5--x5-5-5-5-5-5-5-5-5-5-5-5--| x1




[chorus]

GUITAR 1 (distortion)
GUITAR 2 (distortion)

     E             C                    D                    B
e||-------------------------------------------------------------------------||
B||-------------------------------------------------------------------------||
G||--9-9-9-9-9-9-9----------------------------------------------------------||
D||--9-9-9-9-9-9-9-10-10-10-10-10-10-10-12-12-12-12-12-12-12-9-9-9-9-9-9-9--||
A||--7-7-7-7-7-7-7-10-10-10-10-10-10-10-12-12-12-12-12-12-12-9-9-9-9-9-9-9--||
E||-----------------8--8--8--8--8--8--8-10-10-10-10-10-10-10-7-7-7-7-7-7-7--|| x4




[outro]

GUITAR 1 (clean)

e||----------------------------------------------------------------||-----|
B||----------------------------------------------------------------||-----|
G||-----------------------9-9-9-9-------------------------9-9-9-9--||-----|
D||--9-9-10-10----------------------9-9-10-10----------------------||--2--|
A||------------9-9-9--7-7---------------------9-9-9--7-7-----------||--2--|
E||----------------------------------------------------------------||--0--| x2


GUITAR 2 (clean)

     E                 F   F#       E                 F   F#
e||----------------------------------------------------------------||-----|
B||----------------------------------------------------------------||-----|
G||----------------------------------------------------------------||-----|
D||--2-2-2-2-2-2-2-2-2-3-3-4-4-4-4--2-2-2-2-2-2-2-2-2-3-3-4-4-4-4--||--2--|
A||--2-2-2-2-2-2-2-2-2-3-3-4-4-4-4--2-2-2-2-2-2-2-2-2-3-3-4-4-4-4--||--2--|
E||--0-0-0-0-0-0-0-0-0-1-1-2-2-2-2--0-0-0-0-0-0-0-0-0-1-1-2-2-2-2--||--0--| x2


Have fun =P
Добавлено: 17.08.2013
Другие материалы по этой песне:
  • Аккорды и текст

Страница создана 17.08.2013
http://primanota.ru/bitch-alert/big-brothers-secret-chords.htm
Привет, Гость.
Предлагаем пройти революционный курс по гитаре.
Подарок от PrimaNota.Ru, забирай!