PrimaNota.ru - самый крупный в мире бесплатный архив песенных текстов, аккордов, табулатур и нот


Bis - The Powerpuff Girls - текст песни, таба, видео

Регистрация Запомнить меня
Войти через:  Facebook Google Twitter Vk Yandex Mail.ru

Bis - The Powerpuff Girls - текст песни, таба, видео

Печатать
Просмотров: 183
I've always loved The Powerpuff Girls, so I decided to tab this song out. Pretty 
positive it's 99% accurate, so here we go :D

--------

Intro

e|-----------------|
B|------5-8-7-5----|
G|-----5-----------|   x2
D|-7-7-------------|
A|-----------------|
E|-----------------|

Verse

e|----------------------------|
B|----------------------------|
G|-55555555--3333-------------|
D|-55555555--3333--3333-------|  x3
A|-33333333--1111--3333-------|
E|-----------------1111-------|
   ********  ****  ****

Pre-Chorus

e|-----------------------------|
B|-----------------------------|
G|-----------------------------|
D|-2222222--5-5-5-55-----------|
A|-2222222--3-3-3-33-----------|
E|-0000000--3-3-3-33-----------|
   *******  * * * **

Chorus

e|---------------------------------------------|
B|---------------------------------------------|
G|-5555555555555555--33333333------------------|
D|-5555555555555555--33333333--33333333--------|   x4
A|-3333333333333333--11111111--33333333--------|
E|-----------------------------11111111--------|

Repeat Verse

Repeat Pre-Chorus

Repeat Chorus

(There is this little bridge part right here, and I have no clue what's playing, so I 
just play the verse)

Repeat Chorus x2

Repeat Intro (but leave out that last note)

------------------------

I am pretty positive that this tab is 99% accurate (I tend to repeat sentences). It's 
really fun when you play it when the song :D

So...bye now! Muah. -PWD
Добавлено: 25.03.2012
Другие материалы по этой песне:
  • Аккорды и текст

Страница создана 25.03.2012
http://primanota.ru/bis/the-powerpuff-girls-chords.htm
Привет, Гость.
Предлагаем пройти революционный курс по гитаре.
Подарок от PrimaNota.Ru, забирай!