PrimaNota.ru - самый крупный в мире бесплатный архив песенных текстов, аккордов, табулатур и нот


Birthday Party - The Red Clock - таба, бас-таба, видео

Регистрация Запомнить меня
Войти через:  Facebook Google Twitter Vk Yandex Mail.ru

Birthday Party - The Red Clock - таба, бас-таба, видео

Печатать
Просмотров: 176
Уроки эстрадного вокала в Санкт-Петербурге
Авторы музыки: Rowland S. Howard

-------------------------------------------------------------------------------
                         The Red Clock - Birthday Party
-------------------------------------------------------------------------------


Tabbed by: Maya L T


Tuning: Standard


e|---8-----------6-----------8-----------6--------------|
B|-----------7-----------5-----------7-----------5------|
G|-------9-----------7-----------9-----------7----------|
D|------------------------------------------------------|
A|------------------------------------------------------|
E|------------------------------------------------------|



2nd Part


e|----------------------------------------------------------------------|
B|----------------------------------------------------------------------|
G|----------------------------------------------------------------------|
D|---10------------8-------------------10------------8------------------|
A|--------10---8-------8---6---4---6--------10---8-------6---4---6------|
E|----------------------------------------------------------------------|

 That's all!
Добавлено: 10.12.2015
Другие материалы по этой песне:
  • Аккорды и текст

Страница создана 23.02.2012
http://primanota.ru/birthday-party/the-red-clock-chords.htm
Привет, Гость.
Предлагаем пройти революционный курс по гитаре.
Подарок от PrimaNota.Ru, забирай!