PrimaNota.ru - самый крупный в мире бесплатный архив песенных текстов, аккордов, табулатур и нот


Birthday Party - Riddle House - таба, видео

Регистрация Запомнить меня
Войти через:  Facebook Google Twitter Vk Yandex Mail.ru

Birthday Party - Riddle House - таба, видео

Печатать
Просмотров: 114
Авторы музыки: Rowland S. Howard

Artist: The Birthday Party
Song: "Riddle House"
Album: Happy Birthday / Riddle House (1980)
The Birthday Party (The Boys Next Door, 1980)
The Birthday Party (1982)
Hee-Haw (1989)



Standard Tuning



Guitar I: Rowland S. Howard (Fender Jaguar through MXR Distortion + and Blue Box into Fender Twin Reverb)
Guitar II: Mick Harvey (Maton Wildcat into Fender Twin Reverb)



INTRO/CHORUS:
Guitar II (Mick Harvey)
e|-------11-#--10-11-#-----10--10--10--10----------------9--9--#-----9--#--------9--9--#-----9--#-||
B|-------9--#--9--9--#-----9---9---9---9-----------------8--8--#-----8--#--------8--8--#-----8--#-||
G|-------8--#--8--8--#-----7---7---7---7-----------------9--9--#-----9--#--------9--9--#-----9--#-|| x 4
D|------------------------------------------------------------------------------------------------||
A|------------------------------------------------------------------------------------------------||
E|------------------------------------------------------------------------------------------------||



INTRO/CHORUS:
Guitar I (Rowland S. Howard)
e|------------------------------------------------------------------------------------------------|
B|----------------------------9--9--9--10----9--------------8--------------------------8----------|
G|-------------------9--8--------------------------6--8--9--------------------6--8--9-------------|
D|-6-----8-----9----------------------------------------------------------------------------------|
A|------------------------------------------------------------------------------------------------|
E|------------------------------------------------------------------------------------------------|
+
e|------------------------------------------------------------------------------------------------|
B|-------------------------9---9---9---10----9--------------8--------------------------8--7--6--5-|
G|-------------------9--8--------------------------6--8--9--------------------6--8--9-------------|
D|-6-----8-----9----------------------------------------------------------------------------------|
A|------------------------------------------------------------------------------------------------|
E|------------------------------------------------------------------------------------------------|
+
e|------------------------------------------------------------------------------------------------|
B|-4/---------------------------------------------------------------------------------------------|
G|------------------------------------------------------------------------------------------------|
D|------------------------------------------------------------------------------------------------|
A|------------------------------------------------------------------------------------------------|
E|------------------------------------------------------------------------------------------------|



VERSE:
Guitar I
e|-------4-----5-----4--------4-----4-----------------16-16-16-14-14-14-16----16-14-14-16-16-14---||
B|-4--------4-----------4--------4----------------(0)-14-14-14-14-14-14-14----14-14-14-14-14-14---||
G|-------------------------------------4-----1-----/----------------------------------------------|| x 2
D|------------------------------------------------------------------------------------------------||
A|------------------------------------------------------------------------------------------------||
E|------------------------------------------------------------------------------------------------||
+
e|------------------------------------------------------------------------------------------------|
B|-x--x--9-----------------#-----9-----------------#-----8-----------------------8----------------|
G|-x--x--8-----------------#-----8-----------------#-----9-----------------------9----------------|
D|-x--x--7-----------------#-----7-----------------#-----7-----------------------7----------------|
A|------------------------------------------------------------------------------------------------|
E|------------------------------------------------------------------------------------------------|
+
e|------------------------------------------------------------------------------------------------|
B|-------9-----------------#-----9-----------------------8-----------------------8----------------|
G|-------8-----------------#-----8-----------------------9-----------------------9----------------|
D|-------7-----------------#-----7-----------------------7-----------------------7----------------|
A|------------------------------------------------------------------------------------------------|
E|------------------------------------------------------------------------------------------------|



VERSE:
Guitar II
e|------------------------------------------------------------------------------------------------||
B|-------4--4--#-----4--#--------4--4--#-----4--#--------2--2--#-----2--#--------2--2--#-----2--#-||
G|-------1--1--#-----1--#--------1--1--#-----1--#--------0--0--#-----0--#--------0--0--#-----0--#-|| x 2
D|-------1--1--#-----1--#--------1--1--#-----1--#--------2--2--#-----2--#--------2--2--#-----2--#-||
A|------------------------------------------------------------------------------------------------||
E|------------------------------------------------------------------------------------------------||
+
e|-------11-11-#--11-#--11-#-----11-11-#--11-#--11-#-----9--9--#--9--#--9--#-----9--9--#--9--#--9-||
B|-------9--9--#--9--#--9--#-----9--9--#--9--#--9--#-----8--8--#--8--#--8--#-----8--8--#--8--#--8-||
G|-------8--8--#--8--#--8--#-----8--8--#--8--#--8--#-----9--9--#--9--#--9--#-----9--9--#--9--#--9-|| x 2 
D|------------------------------------------------------------------------------------------------||
A|------------------------------------------------------------------------------------------------||
E|------------------------------------------------------------------------------------------------||




e|------------------------------------------------------------------------------------------------|
B|------------------------------------------------------------------------------------------------|
G|------------------------------------------------------------------------------------------------|
D|------------------------------------------------------------------------------------------------|
A|------------------------------------------------------------------------------------------------|
E|------------------------------------------------------------------------------------------------|
+
e|------------------------------------------------------------------------------------------------|
B|------------------------------------------------------------------------------------------------|
G|------------------------------------------------------------------------------------------------|
D|------------------------------------------------------------------------------------------------|
A|------------------------------------------------------------------------------------------------|
E|------------------------------------------------------------------------------------------------|
+
e|------------------------------------------------------------------------------------------------|
B|------------------------------------------------------------------------------------------------|
G|------------------------------------------------------------------------------------------------|
D|------------------------------------------------------------------------------------------------|
A|------------------------------------------------------------------------------------------------|
E|------------------------------------------------------------------------------------------------|



SONG STRUCTURE:

Guitar I
INTRO
VERSE
CHORUS
VERSE
INTERLUDE
CHORUS
VERSE
CHORUS
OUTRO

Guitar II
INTRO (comes in after two bars of Guitar I)
VERSE
CHORUS
VERSE
INTERLUDE
CHORUS
VERSE
CHORUS
OUTRO



UNFINISHED - TBC



That's it.  Please leave any comments, questions, or requests.  Cheers!
-Bennyshambles78-


Добавлено: 26.06.2015
Другие материалы по этой песне:
  • Аккорды и текст

Страница создана 26.06.2015
http://primanota.ru/birthday-party/riddle-house-chords.htm
Привет, Гость.
Предлагаем пройти революционный курс по гитаре.
Подарок от PrimaNota.Ru, забирай!