PrimaNota.ru - самый крупный в мире бесплатный архив песенных текстов, аккордов, табулатур и нот


Birthday Party - Guilt Parade - таба, видео

Регистрация Запомнить меня
Войти через:  Facebook Google Twitter Vk Yandex Mail.ru

Birthday Party - Guilt Parade - таба, видео

Печатать
Просмотров: 116
Авторы музыки: Rowland S. Howard

Artist: The Birthday Party / The Boys Next Door
Song: "Guilt Parade"
Album: The Birthday Party (1980), Hee-Haw (1989)



Standard Tuning



N.C.:
e|------------------------------------------------|
B|------------------------------------------------|
G|------------------------------------------------|
D|------------------------------------------------|
A|------------------------------------------------|
E|-3----------------------------------------------|



Intro/Verse:
e|------------------------------------------------||
B|------------------------------------------------||
G|------------------------------------------------|| x 2
D|----------------------3-----------------------3-||
A|----1-----------1-----------0-----------0-------||
E|-3--------3--------3-----3--------3--------3----||



Chorus I:
e|-13-------13----13----------5-----5-----5-------||
B|-11-------11----11----------4-----4-----4-------||
G|-12-------12----12----------5-----5-----5-------|| x 3
D|------------------------------------------------||
A|------------------------------------------------||
E|------------------------------------------------||
+
e|-13-------13----13-------x--5~------------------|
B|-11-------11----11-------x--4~------------------|
G|-12-------12----12-------x--5~------------------|
D|------------------------------------------------|
A|------------------------------------------------|
E|------------------------------------------------|



Chorus II:
e|-13-------13----13----------5-----5-----5-------||
B|-11-------11----11----------4-----4-----4-------||
G|-12-------12----12----------5-----5-----5-------|| x 4
D|------------------------------------------------||
A|------------------------------------------------||
E|------------------------------------------------||



Sax Solo:
e|-x--x--x--13----13-13----x--x--x--5-----5-------||
B|-x--x--x--11----11-11----x--x--x--4-----4-------||
G|-x--x--x--12----12-12----x--x--x--5-----5-------|| x 12
D|------------------------------------------------||
A|------------------------------------------------||
E|------------------------------------------------||
+
e|------------------------------------------------|
B|-11~--------------------------------------------|
G|-12~--------------------------------------------|
D|-------------------------------------------x/---|
A|------------------------------------------------|
E|------------------------------------------------|



Outro Chorus:
e|-13-------13----13----------5-----5-----5-------||
B|-11-------11----11----------4-----4-----4-------||
G|-12-------12----12----------5-----5-----5-------|| x 7
D|------------------------------------------------||
A|------------------------------------------------||
E|------------------------------------------------||
+
e|-13-------13----13----------5^v^~---------------|
B|-11-------11----11----------4^v^~---------------|
G|-12-------12----12----------5^v^~---------------|
D|------------------------------------------------|
A|------------------------------------------------|
E|------------------------------------------------|



Song Structure:
N.C.
Intro/Verse x 6
Chorus I
Verse x 3
Chorus II
Sax Solo
Verse x 2
Outro Chorus



That's it.  Please leave any comments, questions, or requests.  Cheers!
-Bennyshambles78-


Добавлено: 13.05.2014
Вам также может быть интересно:
Другие материалы по этой песне:
  • Аккорды и текст

Страница создана 08.12.2013
http://primanota.ru/birthday-party/guilt-parade-chords.htm
Привет, Гость.
Предлагаем пройти революционный курс по гитаре.
Подарок от PrimaNota.Ru, забирай!