PrimaNota.ru - самый крупный в мире бесплатный архив песенных текстов, аккордов, табулатур и нот


Birthday Party - Cry - бас-таба, видео

Регистрация Запомнить меня
Войти через:  Facebook Google Twitter Vk Yandex Mail.ru

Birthday Party - Cry - бас-таба, видео

Печатать
Просмотров: 215
Уроки эстрадного вокала в Санкт-Петербурге
Авторы музыки: Nick Cave
Авторы текста: Nick Cave
Band: The Birthday Party
Song: Cry
Tabbed by: Ben Harrison

Riff1
  1 & 2 & 3 & 4
G|----------------|
D|----------------|
A|----2-----------|
E|0-------3---2---|

Riff2
  1 & 2 & 3 & 4
G|----------------|
D|----------------|
A|----2-----------|
E|0-0-----3---2---|

Riff3
  1 & 2 & 3 & 4
G|----------------|
D|----------------|
A|----------------|
E|0---/-----------|
Just do variations on this - hit the minor third and fifth in various places after 
and it sounds alright.

Riff4
  1 & 2 & 3 & 4
G|----------------|
D|----------------|
A|------2---------|
E|0-0-----3---2---|

Song Order:
Riff1 x 2
Riff2 x 14
Riff3 x 4
Riff2 x 4
Riff3 x 4
Riff4 x 8
Riff2 x 12
Riff3 x 4
Riff4 x 4
Riff3 x 4
Riff4 x 8
Riff2 x 12
Riff3 x 4
Riff4 x 4
Riff3 x 4

Complaints/Comments?
brainerror138@gmail.com
Добавлено: 30.06.2012
Другие материалы по этой песне:
  • Аккорды и текст

Страница создана 06.04.2012
http://primanota.ru/birthday-party/cry-chords.htm
Привет, Гость.
Предлагаем пройти революционный курс по гитаре.
Подарок от PrimaNota.Ru, забирай!