PrimaNota.ru - самый крупный в мире бесплатный архив песенных текстов, аккордов, табулатур и нот


Birdy - I'll Never Forget You - аккорды и текст, таба, видео

Регистрация Запомнить меня
Войти через:  Facebook Google Twitter Vk Yandex Mail.ru

Birdy - I'll Never Forget You - аккорды и текст, таба, видео

Печатать
Просмотров: 409
I'll Never Forget You
Birdy
Hope you like it! :D 
-----------------------------------------------------------------------------
                            I'll Never Forget You  - Birdy
-----------------------------------------------------------------------------
Tabbed by: Helen Shoot
Email: Helen@russia.ru


e|-----0--------0----------1-------3------1-------------------------------|
B|-----1--------1----------1-------3------3-------------------------------|
G|-----0--------0----------2-------0------3-------------------------------|
D|-----2--------2----------3-------0------3-------------------------------|
A|-----3--------2----------3-------2------1-------------------------------|
E|-----0--------0----------1-------3------1-------------------------------|
       C       C/E         F       Gm     B



Tuning: Standart
 C           C/E           F     Gm C
Eighty-Six Charlie came over
  C/E              F       Gm C
He asked me for a favor
  C/E       F        Gm C
Asked me a question
   C/E                 F        Gm 
Asked me to make an exception

C      C/E              F        Gm
       Whoo...
C      C/E                 F        Gm
       Whoo...


C           C/E           F          Gm C
Eighty-Six Charlie, he came back
C/E                  F                Gm C
Said he'd been thinking it over
C/E                  F                Gm C
Said he's had a change of heart
C/E                  F                  Gm 
He thinks he's made a grave mistake


Chorus:

F         B        F                 Dm
  But I, I'll never forget you
F   B       F             Am
  I'll never forget you
F   B        F                 Dm
  You make things so easy
F   B          F             Am
  I'll never forget you

  
C           C/E                   F                  Gm C
Eighty-Six Charlie, he came back, he came back
  C/E                         F                         Gm C
Sat down at the table, and for the last time
 C/E                      F                      Gm C
Said he's finally made up his mind
 C/E                 F               Gm
He wonders if it's not too late
C      C/E           F             Gm
It's not too late because 

I'll never forget you
I'll never forget you
You made me so angry
I'll never forget you
Добавлено: 22.09.2013
Другие материалы по этой песне:

Страница создана 27.04.2012
http://primanota.ru/birdy/ill-never-forget-you-chords.htm
Привет, Гость.
Предлагаем пройти революционный курс по гитаре.
Подарок от PrimaNota.Ru, забирай!