PrimaNota.ru - самый крупный в мире бесплатный архив песенных текстов, аккордов, табулатур и нот


Birds Of Tokyo - Rose - таба, видео

Регистрация Запомнить меня
Войти через:  Facebook Google Twitter Vk Yandex Mail.ru

Birds Of Tokyo - Rose - таба, видео

Печатать
Просмотров: 202
Уроки эстрадного вокала в Санкт-Петербурге
-------------------------------------------------------------------------------
                             ROSE - Birds of Tokyo
-------------------------------------------------------------------------------
Tabbed by: Shaun Starbuck
Email: s_starbuck100@hotmail.com

Tuning: Drop D Standard (ie DGCFAd)

Intro and Verses

    Asus4    Bmin           Dsus2    Bmin
    !  +  2  +  3  +  4  +  1  +  2  +  3  +  4  +
e|-----------------------------------------------------|
B|--2--------3-----------3--5--------3-----------3-----|
G|--2--------4-----------4--9--------4-----------4-----|
D|--0--------4-----------4--7--------4-----------4-----|
A|--0--------2-----------0--5--------2-----------0-----|
E|-----------------------------------------------------|

  Pre-Chorus
e|-----------------------------------------------------|
B|--8-8-8-7-7-7-----(8)--------------------------------|
G|--7-7-7-7-7-7-7-7--7-----strums----------------------|
D|--7-7-7-7-7-7-7-7--7---------------------------------|
A|--5-5-5-5-5-5-5-5--5---------------------------------|
E|-----------------------------------------------------|

   Chorus  
    Asus4    Bmin           Dsus2    Bmin
    !  +  2  +  3  +  4  +  1  +  2  +  3  +  4  +
e|-----------------------------------------------------|
B|--2--------3-----------3--2--------3-----------3-----|
G|--2--------4-----------4--4--------4-----------4-----|
D|--0--------4-----------4--4--------4-----------4-----|
A|--0--------2-----------0--0--------2-----------0-----|
E|-----------------------------------------------------|

Bridge 
    Gmaj7
e|-----------------------------------------------------|
B|-----------------------------------------------------|
G|--11-11----------------------------------------------|
D|---9--9-------------------strum pattern-builds-------|
A|--10-10----------------------------------------------|
E|--------0-0-0-0-0-0-0-0------------------------------|
          she waits in the city...

Post Bridge
e|-------------------------------------------------3---|
B|--8----------------------------------------------3---|
G|--7---------------//-----------------------------0---|
D|--7----strummed---//--for effect you may wish----0---|
A|--5-------------------to strum an open G-------------|
E|-------------------------------------------------3---|


   Final Chorus
    Asus4    Bmin           Dsus2    Bmin
    !  +  2  +  3  +  4  +  1  +  2  +  3  +  4  +
e|-----------------------------------------------------|
B|--2--------3-----------3--2--------3-----------3-----|
G|--2--------4-----------4--4--------4-----------4-----|
D|--0--------4-----------4--4--------4-----------4-----| x4
A|--0--------2-----------0--0--------2-----------0-----|
E|-----------------------------------------------------|

    Gmaj     Emin7          Gmaj     Emin7
    !  +  2  +  3  +  4  +  1  +  2  +  3  +  4  +
e|--3--------3--------------3--------3-----------------|
B|--3--------3--------------3--------3-----------------|
G|--0--------0--------------0--------0-----------------| x2
D|--0--------2--------------0--------2-----------------|
A|-----------2-----------------------2-----------------|
E|--3--------0--------------3--------0-----------------|


    Asus4    Bmin           Dsus2    Bmin
    !  +  2  +  3  +  4  +  1  +  2  +  3  +  4  +
e|-----------------------------------------------------|
B|--2--------3-----------3--2--------3-----------3-----|
G|--2--------4-----------4--4--------4-----------4-----|
D|--0--------4-----------4--4--------4-----------4-----|
A|--0--------2-----------0--0--------2-----------0-----|
E|-----------------------------------------------------|
   (Wait now)
    rose,                           im sorry to 

e|-3----------------|
B|-3----------------|
G|-0----------------|
D|-2----------------|
A|-2----------------|
E|-0----------------|
   see, you, go

************************************

| /   slide up
| \   slide down
| h   hammer-on
| p   pull-off
| ~   vibrato
| +   harmonic
| x   Mute note
| b   Bend
| pb  Pre-bend
| br  Bend release
| pbr Pre-bend release
| brb Bend release bend

************************************
Добавлено: 24.06.2012
Другие материалы по этой песне:
  • Аккорды и текст

Страница создана 24.06.2012
http://primanota.ru/birds-of-tokyo/rose-chords.htm
Привет, Гость.
Предлагаем пройти революционный курс по гитаре.
Подарок от PrimaNota.Ru, забирай!