PrimaNota.ru - самый крупный в мире бесплатный архив песенных текстов, аккордов, табулатур и нот


Birds Of Tokyo - Off Kilter - таба, видео

Регистрация Запомнить меня
Войти через:  Facebook Google Twitter Vk Yandex Mail.ru

Birds Of Tokyo - Off Kilter - таба, видео

Печатать
Просмотров: 165
Birds Of Tokyo - Off Kilter
(verified by BOT guitarist Anthonny)
http://www.myspace.com/birdsoftokyo

By Andrew McMillen
29/01/07
niteshok@hotmail.com
View a (slightly wrong) video of this tab:
http://www.youtube.com/watch?v=TNLb1IZtXx0

INTRO : Palm muted.
E-|------|-
B-|------|-
G-|--7---|-
D-|--x---|-
A-|--5---|-
E-|------|-

VERSE: Palm muted. Chord change in time with lyrics.
E-|----------------------------------------|-
B-|----------------------------------------|-
G-|-----7-----6------5---------3----5------|-
D-|-----x-----x------x---------x----x------|-
A-|-----5-----4------3---------1----3------|-
E-|----------------------------------------|-
	 aches.. you.. countless.. I.. to... 
	 
E-|----------------------------------------|-
B-|----------------------------------------|-
G-|-----7-----6------5---------3----5------|-
D-|-----x-----x------x---------x----x------|-
A-|-----5-----4------3---------1----3------|-
E-|----------------------------------------|-
    relate.. you.. knowing..  bit.. more..
    
Open chords, not palmed muted:
    
E-|----------------------------------------|-
B-|----------------------------------------|-
G-|-----7-----6------5---------3----5------|-
D-|-----7-----6------5---------3----5------|-
A-|-----5-----4------3---------1----3------|-
E-|----------------------------------------|-
       I.. chew..  mouth..  words.. taste..
       
E-|----------------------------------------|-
B-|----------------------------------------|-
G-|-----7-----6------5---------3------5----|-
D-|-----7-----6------5---------3------5----|-
A-|-----5-----4------3---------1------3----|-
E-|----------------------------------------|-
     bad..  you.. swallowing.. tongue..
     
E-|----------------------------------------|-
B-|----------------------------------------|-
G-|----------------------------------------|-
D-|-----5------7------5------7-------------|-
A-|-----5------7------5------7-------------|-
E-|-----3------5------3------5-------------|-
       Best.. me..   got..  real..
       
CHORUS: Listen to song for strumming pattern. 

E-|----------------------------------------|-
B-|----------------------------------------|-
G-|--3-----------------7-------------------|-
D-|--3--------5--------7--------3----------|- x2
A-|--1--------5--------5--------3----------|-
E-|-----------3-----------------1----------|-
    So..    good..  goodbye.. farewell..
   
E-|----------------------------------------|-
B-|----------------------------------------|-
G-|----------------------------------------|-
D-|-----5-----------------7----------------|-
A-|-----5-----------------7----------------|-
E-|-----3-----------------5----------------|-
      love again..   love again..
      
Palm muted:

E-|------|-
B-|------|-
G-|--7---|-
D-|--x---|-
A-|--5---|-
E-|------|-
Hey, here's the second part..
      
VERSE: Palm muted. Chord change in time with lyrics.     
     
E-|----------------------------------------|-
B-|----------------------------------------|-
G-|-----7-----5------2---------------------|-
D-|-----x-----x------2---------------------|-
A-|-----5-----3------0---------------------|-
E-|----------------------------------------|-
	 fuse..   I..   see what happens next... 
	 
E-|----------------------------------------|-
B-|----------------------------------------|-
G-|-----7-----5----------------2-----------|-
D-|-----7-----5------5---------2-----------|-
A-|-----5-----3------5---------0-----------|-
E-|------------------3----------------------|-
    It's..  I..  you're..    time.. 
    
Strum open chord:

E-|------|-
B-|------|-
G-|--2---|-
D-|--2---|-
A-|--0---|-
E-|------|-
If I were you I'd run as fast as hell..


SOLO: With phaser effect.

E-|-----------------------------------------|-
B-|--------------------------------13-------|-
G-|/14~14-12-14~-12-14-14-14-12-14----14-12-|-
D-|-----------------------------------------|-
A-|-----------------------------------------|-
E-|-----------------------------------------|-


E-|---------------------------------------------------|-
B-|---------------------------------------------------|-
G-|/14~14-12-14~-12-14-14-14-12-10-10-10-9-9-7-9-9-10-|-
D-|---------------------------------------------------|-
A-|---------------------------------------------------|-
E-|---------------------------------------------------|-

E-|--------------------------------------|-
B-|--------------------------------------|-
G-|12-12-12-10-10-9-10-12-12-12/14-------|-
D-|--------------------------------------|-
A-|--------------------------------------|-
E-|--------------------------------------|-

CHORUS: 

E-|----------------------------------------|-
B-|----------------------------------------|-
G-|--3-----------------7-------------------|-
D-|--3--------5--------7--------3----------|- x2
A-|--1--------5--------5--------3----------|-
E-|-----------3-----------------1----------|-
    So..    good..  goodbye.. farewell..
   
E-|----------------------------------------|-
B-|----------------------------------------|-
G-|----------------------------------------|-
D-|-----5-----------------7----------------|-
A-|-----5-----------------7----------------|-
E-|-----3-----------------5----------------|-
      love again..   love again..


Finish on:

E-|------|-
B-|------|-
G-|------|-
D-|--3---|-
A-|--3---|-
E-|--1---|-

Lyrics:

My belly aches, from you, and the countless times that I tried to relate, 
To you, knowing that I'd bit off more than I can chew.
My mouth is full of words that taste as bad, as you, 
Swallowing my tongue sounds like the best in store for me,
It's got to be for real.

So long, see you in good time,
This is my goodbye,
This is my farewell (x2)

I'll love again 
I'll love again.

Hey, here's the second part, the charge is set and 
I don't want to wait around to see what happens next.
It's too late, I said this charge is set, the fuse is lit and 
I don't want to wait around, you're running out of time,
If I were you I'd run as fast as hell.

So long, see you in good time,
This is my goodbye,
This is my farewell (x2)

I'll love again 
I'll love again.
Добавлено: 14.03.2012
Другие материалы по этой песне:
  • Аккорды и текст

Страница создана 14.03.2012
http://primanota.ru/birds-of-tokyo/off-kilter-chords.htm
Привет, Гость.
Предлагаем пройти революционный курс по гитаре.
Подарок от PrimaNota.Ru, забирай!