PrimaNota.ru - самый крупный в мире бесплатный архив песенных текстов, аккордов, табулатур и нот


Birch Book - Train To Rome - таба, видео

Регистрация Запомнить меня
Войти через:  Facebook Google Twitter Vk Yandex Mail.ru

Birch Book - Train To Rome - таба, видео

Печатать
Просмотров: 72
Уроки эстрадного вокала в Санкт-Петербурге
TRAIN TO ROME - Birch Book
--------------------------
Tab by: Wehmutshall

Standard Tuning

Intro
e|---------3p0---------------0---|---------3p0---------------0----|-------------------0------------|
B|-----1---------3---1---3----3--|-----1---------3---1---3-----3--|---------3-----3-------3-1p0----|
G|-------2-----2---2---2---2----2|-------0-----0---0---0---0-----0|-----2-------2---2-----------2p0|
D|-------------------------------|--------------------------------|-0------------------------------|
A|-0-----------------------------|-3------------------------------|--------------------------------|
E|-------------------------------|--------------------------------|--------------------------------|

Verses
e|---------0-------0--------------|-------0-------0-------0--------|-------------0---0-------------|
B|-----1-----1---1-----1---3-3p1--|-----------1-------1-----3p1---1|-------3-------3-----3-1p0-----|
G|-------2-----2-----------------2|-----0-------0-------0-------0--|-----2---2-----------------2p0-|
D|--------------------------------|---------2----------------------|-0-----------------------------|
A|-0------------------------------|-0h3-------------3--------------|-------------------------------|
E|--------------------------------|--------------------------------|-------------------------------|

e|-----0----------------|-------0-------0-----------------|-----0---------------|
B|--------1-------------|---1-----3p1---------3p1p0-------|-----------1---------|
G|-----2------2-------0-|-----0-------0---------------2---|-----2-------------0-|
D|----------------------|-----------------0-------------0-|---------------------|
A|-0------------0h2p0---|-3-------------------------------|-0-----------0h2p0---|
E|----------------------|---------------------------------|---------------------|

e|-------0-------0----------------|--------0-------0--------------|-------0-------0-------0-------0|
B|---1---------1-------3p1p0------|----1-----1---1-----1---3p1---1|-----------1-------1-------1----|
G|-----0-----------------------2--|------2-----2---------------2--|-----0-------0-------0----------|
D|---------0h2-----0-------------0|-------------------------------|---------2---------------2------|
A|-3------------------------------|-0-----------------------------|-0h3-------------3-----------3--|
E|--------------------------------|-------------------------------|--------------------------------|

e|-------------0-------0---------|-------0---------------|-------0-------0-----------------|
B|---------3-------3-----3---1p0-|-------------1---------|---1---------1-------3p1p0-------|
G|-----2-------------------------|-------2-------------0-|-----0-----------------------2---|
D|-0-----------------------------|-----------------------|---------0h2-----0-------------0-|
A|-------------------------------|-0-------------0h2p0---|-3-------------------------------|
E|-------------------------------|-----------------------|---------------------------------|

e|---------------------|-------0-------0-------0-------0-|---------------------------------|
B|-------1-------------|---1-------1-------1-------1-----|-------3-------3-------3---------|
G|-------2-------------|-----0-------0-------0-------0---|-----0-----0-------0-------0-----|
D|---------------------|---------2---------------2-------|-------------0-------0-------0---|
A|-0-----------0h2p0---|-3---------------3---------------|---------2---------------2-----2-|
E|-------------------3-|---------------------------------|-0h3-------------3---------------|

e|-------------------------------|-------3p0---------------0-------|
B|-------3-------3---3-----------|-1-----1-----3---1---3-----3-----|
G|---2-------2---------2---------|-----------2---2---2---2-----2---|
D|-----0-------0---------------0-|---------------------------------|
A|---------0-------------0-2-----|-0-------------------------------|
E|-1---------------1-----------3-|---------------------------------|

e|-------3p0---------------0-----|-------------------0-------------|
B|---1---1-----3---1---3-----3---|---------3-----3-------3-1p0-----|
G|-----0-----0---0---0---0-----0-|-----2-------2---2-----------2p0-|
D|-------------------------------|-0-------------------------------|
A|-3-----------------------------|---------------------------------|
E|-------------------------------|---------------------------------|
Добавлено: 25.09.2015
Другие материалы по этой песне:
  • Аккорды и текст

Страница создана 25.09.2015
http://primanota.ru/birch-book/train-to-rome-chords.htm
Привет, Гость.
Предлагаем пройти революционный курс по гитаре.
Подарок от PrimaNota.Ru, забирай!