PrimaNota.ru - самый крупный в мире бесплатный архив песенных текстов, аккордов, табулатур и нот


Birch Book - The Carnival Is Empty - таба, видео

Регистрация Запомнить меня
Войти через:  Facebook Google Twitter Vk Yandex Mail.ru

Birch Book - The Carnival Is Empty - таба, видео

Печатать
Просмотров: 70
Уроки эстрадного вокала в Санкт-Петербурге
THE CARNIVAL IS EMPTY - Birch Book
----------------------------------
Tab by: Wehmutshall

Standard Tuning, Capo 1

Intro
e|----------------|-------------------|-------------------|----------------------|
B|-1p0-------0----|-0h1-3---0---------|-0-----------------|-0---------------0----|
G|-------2------2-|-------------2-----|-----0h2p0---2-----|---0---------0--------|
D|-----2----------|-------2-------2---|---0-------0---0---|-----2-----2---2------|
A|-0--------------|-0---------------0-|-----------------2-|-------0h2------------|
E|----------------|-------------------|-3-----------------|-0--------------------|

e|-------------------|------------------|-------------------|--------------------|
B|-0h1-0-------0-----|-0h1-3---0--------|-0-----------------|-0h1--0-------------|
G|---------2------2--|------------2-----|-----0h2p0---2-----|----------2-0-------|
D|-------2-----------|-------2------2---|---0-------0---0---|--------------2-----|
A|-0-----------------|-0--------------0-|-----------------2-|--------------------|
E|-------------------|------------------|-3-----------------|-0------------------|

e|-----------------|------------------|------------------|-----------------------|
B|-------1---------|-----1p0----------|-0----------------|-------1---------------|
G|---2-----2---2---|----2---2-0-------|-----0----0-------|---2-------2---2-------|
D|-----3-----3---3-|---2--------2-0---|---------0--0-----|-----3-------3---------|
A|-------3---------|-0--------------0-|------0h2-----2---|-------3---------------|
E|-1---------------|------------------|-3--------------3-|-1---------------------|

e|-0----------------|-------------------|
B|---1---3-1p0------|-0h1p0---------1---|
G|-----2-------2-0--|-------2-----2---2-|
D|-3--------------0-|----------2--------|
A|------------------|-------0-----------|
E|------------------|-3-----------------|

Verse
e|---------------|-------------------|-----------------|-------------------------|
B|-1---0----0----|-0h1-3---0---------|-0---------------|-0h1---0-----------------|
G|-------2-----2-|-------------2---0-|-------2-0-2-----|-----------0---0---------|
D|---2-----------|-------2-------2---|-----0-------0---|-------------2-----------|
A|-0-------------|-0-----------------|---------------2-|-------------------------|
E|---------------|-------------------|-3---------------|-0-----------------------|

e|------------------|--------------------|-------------------|-------------------|
B|-0h1-0-----0------|-0h1-3---0----------|-0-----------------|-0---0p1h0-----0---|
G|---------------2--|-------------2---0--|-----0h2p0---2-----|-----------0-----0-|
D|-------2--------2-|-------2-------2--0-|---0-------0---0---|---2---------2-----|
A|-0----------------|-0------------------|-----------------2-|-------------------|
E|------------------|--------------------|-3-----------------|-0-----------------|

Chorus
e|-----------------|------------------|------------------|-----------------------|
B|-------1-----1---|-----1p0----------|-0----------------|-------1---------------|
G|---2-----2-------|----2---2-0-------|-----0----0-------|---2-------2---2-------|
D|-----3-----3---3-|---2--------2-0---|---------0--0---0-|-----3-------3---------|
A|-------3---------|-0--------------0-|------0h2-----2---|-------3---------------|
E|-1---------------|------------------|-3----------------|-1---------------------|

e|-0----------------|-------------0-0-|-3------------0h1p0--|-0-----0------------|
B|---1---3-1-----0--|-0h1p0-----------|---0--------3------3-|---1-------1---1----|
G|-----2-----2----0-|-------2---2-----|----------0--0-------|-----2-------2------|
D|-3-----------3----|-----------------|--------0------------|-3-----3------------|
A|------------------|-------0---------|-----0h2-------------|--------------------|
E|------------------|-3---------------|-3--3----------------|--------------------|

e|-0----------------|-------------------|
B|---1---3-1p0------|-0h1p0---------1---|
G|-----2-------2-0--|-------2-----2---2-|
D|-3--------------0-|-----------2-------|
A|------------------|-------0-----------|
E|------------------|-3-----------------|
Добавлено: 25.09.2015
Вам также может быть интересно:
Другие материалы по этой песне:
  • Аккорды и текст

Страница создана 25.09.2015
http://primanota.ru/birch-book/carnival-is-empty-chords.htm
Привет, Гость.
Предлагаем пройти революционный курс по гитаре.
Подарок от PrimaNota.Ru, забирай!