PrimaNota.ru - самый крупный в мире бесплатный архив песенных текстов, аккордов, табулатур и нот


Bipolar - Chemical Dream - текст песни, таба, видео

Регистрация Запомнить меня
Войти через:  Facebook Google Twitter Vk Yandex Mail.ru

Bipolar - Chemical Dream - текст песни, таба, видео

Печатать
Просмотров: 145
Okay, So I couldn't find any tabs for this song and I learned this by ear so go a little
easy if there are mistakes :) But, this is a pretty easy song in this form and it might
not sound like the track version(which is played in Drop B and who wants to tune their 
guitar all the way down to that) lol, anyway, here it is! By the way- I don't have the
solo for this song and it's the Acoustic version.

Intro: Picking(Repeat x2) but continue after vertical line to end of 2nd time
playing(meaning skip the whole "8h9p8" stuff.)

E-------------------------------------------------|-----|
B-------------------------------------------------|-----|
G----------4-----------6--------------------------|-----|
D------4-----------6------------8---8h9p8--7------|--6--|
A----2---2-------4---4-------6----6----------7----|--6--|
D--2-----------4-----------6-------------------7--|--6--|

Verse 1: Strumming(Just follow along with song. I can't really tab out strumming because
I don't know how... xD

E------------|
B------------|
G------------|
D--2-----4---|
A--2-----4---|
D--2-----4---|
Easy right? Simple as that. It's just those two barred over and over again throughout
Verse 1.

Pre-Chorus: Build up strum this.(Basically, palm mute and strum down fast keeping
rhythm. Strum keeping rhythm on the "2" part, Then build up strum on "4" but slowly.)

E----------------------------------------|
B----------------------------------------|
G----------------------------------------|
D--6--6666-8--8888--2--9---4-4--4--------|
A--6--6666-8--8888--2--9---4-4--4--------|
D--6--6666-8--8888--2--9---4-4--4--------|

Chorus: strumming.

E-------------------------------------------|
B-------------------------------------------|
G-------------------------------------------|
D--6--2--9--4---6--6666--8--8888--2--9--4---|
A--6--2--9--4---6--6666--8--8888--2--9--4---|
D--6--2--9--4---6--6666--8--8888--2--9--4---|
[Repeat "Intro" right after this chorus]

Verse 2: Just repeat "Verse 1"

(Repeat Chorus after "Verse 2")

Solo: Rhythm-Strumming(Playing during solo)

E-----------------------------|
B-----------------------------|
G-----------------------------|
D--6--2--9--4---6--2--9--4----|
A--6--2--9--4---6--2--9--4----|
D--6--2--9--4---6--2--9--4----|

Bridge: "Build up strum"(Palm Mute and strum down fast keeping rhythm) But, resume
strumming on "6".

E----------------------------------|
B----------------------------------|
G----------------------------------|
D--2--4--6--4----2--4--6--4--------|
A--2--4--6--4----2--4--6--4--------|
D--2--4--6--4----2--4--6--4--------|


When he sings this, strum once down keeping rhythm on each chord.
 "Your Chemical Dreammmm..."
E----------------------------------|
B----------------------------------|
G----------------------------------|
D-----6----------4----------2------|
A-----6----------4----------2------|
D-----6----------4----------2------|
(After the "2" continue strumming and repeat chorus from "2" on it, meaning resume
chorus at "9")

Anyway, Repeat chorus twice after this^ and that's pretty much it. End with "Intro".



If you need any help just message me on here or my Youtube-youtube.com/AllmondJoy9

Also, If enough people need help with this , I'll post a video on youtube of me playing
this song. Anyway, thanks a lot! It's not a hard song to learn really if you've been
playing for a long time. ^_^
Добавлено: 17.04.2012
Вам также может быть интересно:
Другие материалы по этой песне:
  • Аккорды и текст

Страница создана 26.02.2012
http://primanota.ru/bipolar/chemical-dream-chords.htm
Привет, Гость.
Предлагаем пройти революционный курс по гитаре.
Подарок от PrimaNota.Ru, забирай!