PrimaNota.ru - самый крупный в мире бесплатный архив песенных текстов, аккордов, табулатур и нот


Biohazard - We Only Gonna Die From Our Own Arrogance - бас-таба, видео

Регистрация Запомнить меня
Войти через:  Facebook Google Twitter Vk Yandex Mail.ru

Biohazard - We Only Gonna Die From Our Own Arrogance - бас-таба, видео

Печатать
Просмотров: 110
PART1
F--------------------------|
C----------------------1---|
G-1-333*-1-333*-1-333*---1-| *play G3 2x during slow parts
C--------------------------|  and 3x when its getting faster..

PART2
F-----------------------------------------|
C-----------33-3--------------------------|
G-33-3-11-1------33-3-33-3-11-1------33-3-|
C-------------------------------33-3------|

PART3
F----------------|
C----------------|
G-3~-1~----3~--3-|
C-------3~-------|

PART4
F-------------------------------------|
C-------------------33333333----------|
G-33333333-11111111----------33333333-|
C-------------------------------------|

PART5
F-------------------------------------|
C-------------------------------------|
G-33333333-11111111----------33333333-|
C-------------------33333333----------|

FINISH
F------|
C------|
G-3~/0-
C------

ORDER:
PART1 4X
PART2 3x
part1 4x
part3 1x
part4 1x
part5 5x
part1 4x
part2 2x
part1 8x
finish

thats all.. have fun..
if you find mistakes plz send me your corrections..
  xxSID
Добавлено: 31.03.2012
Другие материалы по этой песне:
  • Аккорды и текст

Страница создана 31.03.2012
http://primanota.ru/biohazard/we-only-gonna-die-from-our-own-arrogance-chords.htm
Привет, Гость.
Предлагаем пройти революционный курс по гитаре.
Подарок от PrimaNota.Ru, забирай!