PrimaNota.ru - самый крупный в мире бесплатный архив песенных текстов, аккордов, табулатур и нот


Biohazard - Resist - текст песни, таба, видео

Регистрация Запомнить меня
Войти через:  Facebook Google Twitter Vk Yandex Mail.ru

Biohazard - Resist - текст песни, таба, видео

Печатать
Просмотров: 107
Biohazard - Resist

intro & chorus
D|-------------|-------------|-------------|------------|
A|-------------|-------------|-------------|------------|
F|-------------|-------------|-------------|------------|
C|8-7-5-2---5-7|5-2---3-3-3-3|8-7-5-2---5-7|5-2---0--3--|
G|8-7-5-2---5-7|5-2---3-3-3-3|8-7-5-2---5-7|5-2---0--3--|
C|8-7-5-2---5-7|5-2---3-3-3-3|8-7-5-2---5-7|5-2---0--3--| 2x

verse
D|--------|--------|--------|--------|
A|--------|--------|--------|--------|
F|--------|--------|--------|--------|
C|2-------|2--0-3--|2-------|-8---8--|
G|2-------|2--0-3--|2-------|-8---8--|
C|2-------|2--0-3--|2-------|-8---8--| 2x


D|-------------|-------|-------------|--------|
A|-------------|-------|-------------|--------|
F|-------------|-------|-------------|--------|
C|2-2--2-2-2--2|2--0-3-|2-2--2-2-2---|-8---8--|
G|2-2--2-2-2--2|2--0-3-|2-2--2-2-2---|-8---8--|
C|2-2--2-2-2--2|2--0-3-|2-2--2-2-2---|-8---8--| 2x

bridge & solo
D|------------|-----------|----------|--------|
A|------------|-----------|----------|--------|
F|------------|-----------|----------|--------|
C|9---9-9--8--|---5---2---|7---7-7-3-|--6--2--|
G|9---9-9--8--|---5---2---|7---7-7-3-|--6--2--|
C|9---9-9--8--|---5---2---|7---7-7-3-|--6--2--| 2x
Добавлено: 20.05.2016
Другие материалы по этой песне:

Страница создана 19.05.2012
http://primanota.ru/biohazard/resist-chords.htm
Привет, Гость.
Предлагаем пройти революционный курс по гитаре.
Подарок от PrimaNota.Ru, забирай!