PrimaNota.ru - самый крупный в мире бесплатный архив песенных текстов, аккордов, табулатур и нот


Biohazard - Decline - аккорды и текст, видео

Регистрация Запомнить меня
Войти через:  Facebook Google Twitter Vk Yandex Mail.ru

Biohazard - Decline - аккорды и текст, видео

Печатать
Просмотров: 141
Decline
Biohazard
+++++++++++++++++++++++++++++++++++++++++++++++++++++++


        BIOHAZARD  [new world disorder]

            --> "Decline"


++++++++++++++++++++++++++++++++++++++++++++++++++++++++


GUITAR [1]		GUITAR [2]
6th: dropped D         	5th: dropped G + 6th: dropped D
e = e				e = e
b = b 			b = b
g = g  			g = g
d = d  			d = d
a = a  			a = g
e = d 			e = d


+++++++++++++++++++++++++++++++++++++++++++++++++++++++++



INTRO

     [2]	   [1]
e|--------- 	e|--------
b|--------- 	b|--------
g|----7\--- 	g|--------
d|----7\--- 	d|--------
g|----7\--- 	a|--12\---
d|----7\--- 	d|--12\---



   [1]
e|--------------
b|--------------
g|--------------
d|--------------
a|---10-7-10-6--
d|---10-7-10-6--






VERSE
        [2]
e|-------------------------------------------------------------
b|-------------------------------------------------------------
g|--7-8-7--10-10---7-8-7--11-11---7-8-7--10-10---7-8-7--5-5----
d|--7-8-7--10-10---7-8-7--11-11---7-8-7--10-10---7-8-7--5-5----
g|--7-8-7--10-10---7-8-7--11-11---7-8-7--10-10---7-8-7--5-5-8--
d|--7-8-7--10-10---7-8-7--11-11---7-8-7--10-10---7-8-7--5-5-6--


        [1]
e|--------------------------------------------------------
b|--------------------------------------------------------
g|--------------------------------------------------------
d|--0--1-0-3-33---0--1-0-4-44---0--1-0-3-33---0--1-0-5----
a|--0--1-0-3-33---0--1-0-4-44---0--1-0-3-33---0--1-0-3-6--
d|--0--1-0-3-33---0--1-0-4-44---0--1-0-3-33---0--1-0---6--








CHORUS
          [1]
e|-----------------------------
b|-----------------------------
g|-----------------------------
d|---0-1-0-3-0-3---0-1-0-6-6---
a|---0-1-0-3-0-3---0-1-0-6-6---
d|---0-1-0-3-0-3---0-1-0-6-6---


          [2]
e|-------------------------------
b|-------------------------------
g|----7-8-7-10-7-10----7-8-7-----
d|----7-8-7-10-7-10----7-8-7-----
g|----7-8-7-10-7-10----7-8-7-8---
e|----7-8-7-10-7-10----7-8-7-6---










BRIDGE
	[2]plays two frets higher on 5th string

   [1]
e|--------------------------------------
b|--------------------------------------
g|--------------------------------------
d|---0----------------------------------
a|---0---5----6----7----8---8-8-10-10---
d|---0-----00---00---00---0-------------


    [1]
e|---------------------------------------
b|---------------------------------------
g|---------------------------------------
d|---0---7----8----9---10---10-10-12-12--
a|---0---5----6----7----8----8--8-10-10--
d|---0-----00---00---00---0--------------









BRIDGE & after SOLO

   [2]
e|---------------------------------
b|---------------------------------
g|--8-7-9-6--10-8-11-7--10-12-12---
d|--8-7-9-6--10-8-11-7--10-12-12---
g|--8-7-9-6--10-8-11-7--10-12-12---
d|--8-7-9-6--10-8-11-7--10-12-12---


   [1]
e|----------------------------------
b|----------------------------------
g|----------------------------------
d|--8-7-9-6--10-8-11-7--10-12--12---
a|--6-5-7-4---8-6--9-5---8-10--10---
d|----------------------------------










Before Solo & SOLO rhythm

   [1]
e|---------------------------------
b|---------------------------------
g|---------------------------------
d|---0---6-10---9---3-0---6-10--9--
a|---0---6-10---9---3-0---6-10--9--
d|---0---6-10---9---3-0---6-10--9--


   [2]
e|------------------
b|------------------
g|------------------
d|---7--1-5--4------
g|---7--1-5--4-5-7--
d|---7--1-5--4-3-7--



jonadean@hotmail.com  moshbaby HR> 4/00
     
Добавлено: 21.07.2013
Другие материалы по этой песне:
  • Аккорды и текст

Страница создана 10.04.2012
http://primanota.ru/biohazard/decline-chords.htm
Привет, Гость.
Предлагаем пройти революционный курс по гитаре.
Подарок от PrimaNota.Ru, забирай!