PrimaNota.ru - самый крупный в мире бесплатный архив песенных текстов, аккордов, табулатур и нот


Biohazard - Breakdown - текст песни, таба, видео

Регистрация Запомнить меня
Войти через:  Facebook Google Twitter Vk Yandex Mail.ru

Biohazard - Breakdown - текст песни, таба, видео

Печатать
Просмотров: 181
++++++++++++++++++++++++++++++++++
   BIOHAZARD - "Breakdown"
++++++++++++++++++++++++++++++++++
Album: New World Disorder '99


- dropped D tuning -



INTRO/VERSE
e|-----------------------------------
b|-----------------------------------
g|-----------------------------------
d|-----------------------------2-----
a|--66666--7\----4-1---1-4---1-0-----
d|--66666--7\----4-1---1-4---1-0-----


PRE/CH
e|--------------------------------------------
b|--------------------------------------------
g|--------------------------------------------
d|----2---8-88\5--------2---8--10\5---------2-
a|--1-0-1-6-66\3--4---1-0-1-6---8\3---1-4-1-0-
d|--1---1---------4---1---1-----------1-4-1-0-



BREAK
e|--------------------------------------------
b|--------------------------------------------
g|--------------------------------------------
d|--0-----------------------------------------
a|--0---5-3-0-----66------5-3-0-----6-0-3-5---
d|--0---------0---66------------0---6-0-3-5---



e|--------------------------------------------
b|--------------------------------------------
g|--------------------------------------------
d|--0---8/10--7777---8/10---7777--8/10\7------
a|--0---6/8---5555---6/8----5555--6/8 \5---6--
d|--0--------------------------------------6--



[moshbaby HR * jonadean@hotmail.com]
     
Добавлено: 24.10.2013
Другие материалы по этой песне:
  • Аккорды и текст

Страница создана 06.07.2012
http://primanota.ru/biohazard/breakdown-chords.htm
Привет, Гость.
Предлагаем пройти революционный курс по гитаре.
Подарок от PrimaNota.Ru, забирай!