PrimaNota.ru - самый крупный в мире бесплатный архив песенных текстов, аккордов, табулатур и нот


Bing Crosby - Do You Hear What I Hear - текст песни, бас-таба, видео

Регистрация Запомнить меня
Войти через:  Facebook Google Twitter Vk Yandex Mail.ru

Bing Crosby - Do You Hear What I Hear - текст песни, бас-таба, видео

Печатать
Просмотров: 58
-------------------------------------------------------------------------------
                    Do You Hear What I Hear? - Bing Crosby
-------------------------------------------------------------------------------
Tabbed by: CorporalCrunch
Tuning: Standard

Intro: "Do you hear what I hear"
G|--------------|
D|---------8----|
A|-----8-8----8-|
E|-6-6----------|
        x2

Verse 1: "Said the night wind to the little lamb..."
G|----------------------|--------------|-----------------|--------------|
D|----------------------|---------8----|-----------------|---------8----|
A|---3-5--5-5-5-5-3-3-5-|-----8-8----8-|-5-5-5-5-5-3-3-5-|-----8-8----8-|
E|-6--------------------|-6-6----------|-----------------|-6-6----------|
                               x2                                x2

Bridge: "A star, a star, dancing in the night..."
G|----------|-----------|-------------------|-------------------|
D|-3-5--3---|-3-5-3-----|-------------------|-------------------|
A|--------5-|-------6-5-|-5-3------3----3-5-|-5-3------6--5-3---|
E|----------|-----------|-----6--6----6-----|-----6--6--------6-|


Verse 2: "Said the little lamb to the shepherd boy..."
G|---------------------|--------------|----------------|--------------|
D|---------------------|---------8----|----------------|---------8----|
A|---3-55-5--5-5-3-3-5-|-----8-8----8-|-55-5-5-5-3-3-5-|-----8-8----8-|
E|-6-------------------|-6-6----------|----------------|-6-6----------|
                              x2                               x2

Bridge: "A song, a song high above the trees..."
G|----------|-----------|-------------------|-------------------|
D|-3-5--3---|-3-5-3-----|-------------------|-------------------|
A|--------5-|-------6-5-|-5-3------3----3-5-|-5-3------6--5-3---|
E|----------|-----------|-----6--6----6-----|-----6--6--------6-|


Verse 3: "Said the shepherd boy to the mighty king..."
G|----------------------|--------------|-----------------|--------------|
D|----------------------|---------8----|-----------------|---------8----|
A|---3-5--5-5-5-5-3-3-5-|-----8-8----8-|-5-5-5-5-5-3-3-5-|-----8-8----8-|
E|-6--------------------|-6-6----------|-----------------|-6-6----------|
                               x2                                x2

Bridge: "A Child, a Child shivers in the cold..."
G|----------|-----------|-------------------|-------------------|
D|-3-5--3---|-3-5-3-----|-------------------|-------------------|
A|--------5-|-------6-5-|-5-3------3----3-5-|-5-3------6--5-3---|
E|----------|-----------|-----6--6----6-----|-----6--6--------6-|


Verse 4: "Said the king to the people everywhere..."
G|----------------------|--------------|------------------|--------------|
D|----------------------|---------9----|------------------|---------9----|
A|---4-6--6-6-6-6-4-4-6-|-----9-9----9-|-6-6-6--6-6-4-4-6-|-----9-9----9-|
E|-7--------------------|-7-7----------|------------------|-7-7----------|
                                x2                                x2

Bridge: "The Child, the Child sleeping in the night..."
G|----------|-----------|-------------------|--------------------------|
D|-4-6--4---|-4-6-4-----|-------------------|---------------------9----|
A|--------6-|-------7-6-|-6-4------4----4-6-|-6-4-------7--6---9-------|
E|----------|-----------|-----7--7----7-----|-----7--7-----------------|

===============================================================================
Добавлено: 21.05.2016
Другие материалы по этой песне:
  • Аккорды и текст

Страница создана 17.06.2012
http://primanota.ru/bing-crosby/do-you-hear-what-i-hear-chords.htm
Привет, Гость.
Предлагаем пройти революционный курс по гитаре.
Подарок от PrimaNota.Ru, забирай!