PrimaNota.ru - самый крупный в мире бесплатный архив песенных текстов, аккордов, табулатур и нот


Binary Heart - Winterhaven - таба, видео

Регистрация Запомнить меня
Войти через:  Facebook Google Twitter Vk Yandex Mail.ru

Binary Heart - Winterhaven - таба, видео

Печатать
Просмотров: 92
-----------------------------------------------------------------
Winterhaven - Binary Heart
-----------------------------------------------------------------

Tabbed by: Chris Johnert

Tuning: Standard

Intro

Guitar 1
E|-----------------------------|
B|------9----------------------|
G|--------9-8------------------| (2x)
D|--------------6-7--77-9-7-6--|
A|--6^7-------9----------------|
E|-----------------------------|

Guitar 2
    E    A
E|------------|
B|------------|
G|--9-9-------| (2x)
D|--9-9--7-7--|
A|--7-7--7-7--|
E|-------5-5--|

Verse 1

    E                        A                        C#m          B            A            B 
E|--------------------------------------------------------------------------------------------------------|
B|--------------------------------------------------------------------------------------------------------|
G|--9-999-9-999-9-999-9-999---------------------------6-666-6-666--4-444-4-444--2-222-2-222--4-444-4-444--| (2x)
D|--9-999-9-999-9-999-9-999--7-777-7-777-7-777-7-777--6-666-6-666--4-444-4-444--2-222-2-222--4-444-4-444--|
A|--7-777-7-777-7-777-7-777--7-777-7-777-7-777-7-777--4-444-4-444--2-222-2-222--0-000-0-000--2-222-2-222--|
E|---------------------------5-555-5-555-5-555-5-555------------------------------------------------------|

    B3       C#m7
E|--------------------|
B|--------------------|
G|--------------------| (3x)
D|--999-999--999-999--|
A|--666-666--777-777--|
E|--777-777--999-999--|

    A            B
E|----------------------------|
B|----------------------------|
G|----------------------------| (3x)
D|--7-777-7-777--9-999-9-999--|
A|--7-777-7-777--9-999-9-999--|
E|--5-555-5-555--7-777-7-777--|


Riff Part

Guitar 1
E|-----------------------------|
B|------9----------------------|
G|--------9-8------------------| (2x)
D|--------------6-7--77-9-7-6--|
A|--6^7-------9----------------|
E|-----------------------------|

Guitar 2
    E    A
E|------------|
B|------------|
G|--9-9-------| (2x)
D|--9-9--7-7--|
A|--7-7--7-7--|
E|-------5-5--|

Verse 2

    E                        A                        C#m          B            A            B 
E|--------------------------------------------------------------------------------------------------------|
B|--------------------------------------------------------------------------------------------------------|
G|--9-999-9-999-9-999-9-999---------------------------6-666-6-666--4-444-4-444--2-222-2-222--4-444-4-444--| (2x)
D|--9-999-9-999-9-999-9-999--7-777-7-777-7-777-7-777--6-666-6-666--4-444-4-444--2-222-2-222--4-444-4-444--|
A|--7-777-7-777-7-777-7-777--7-777-7-777-7-777-7-777--4-444-4-444--2-222-2-222--0-000-0-000--2-222-2-222--|
E|---------------------------5-555-5-555-5-555-5-555------------------------------------------------------|

    B3       C#m7     
E|--------------------|
B|--------------------|
G|--------------------| (3x)
D|--999-999--999-999--|
A|--666-666--777-777--|
E|--777-777--999-999--|

    A            B
E|----------------------------|
B|----------------------------|
G|----------------------------| (3x)
D|--7-777-7-777--9-999-9-999--|
A|--7-777-7-777--9-999-9-999--|
E|--5-555-5-555--7-777-7-777--|

Riff Part

Guitar 1
E|-----------------------------|
B|------9----------------------|
G|--------9-8------------------| (3x)
D|--------------6-7--77-9-7-6--|
A|--6^7-------9----------------|
E|-----------------------------|

Guitar 2
    E    A
E|------------|
B|------------|
G|--9-9-------| (3x)
D|--9-9--7-7--|
A|--7-7--7-7--|
E|-------5-5--|

Guitar 1
E|-----------------------------|
B|-----------------------------|
G|-------------9------6--------|
D|-----6---7-----9-99---9-6-7--|
A|-6^7---7---7-----------------|
E|-----------------------------|

Guitar 2
    E    B
E|------------|
B|------------|
G|--9-9-------|
D|--9-9--9-9--|
A|--7-7--9-9--|
E|-------7-7--|

Bridge

    A            B            E      E/D#   C#m    Ab
E|--------------------------------------------------------|
B|--------------------------------------------------------|
G|----------------------------9-999--8-888--6-666---------|
D|--7-777-7-777--9-999-9-999--9-999--9-999--6-666--6-666--|
A|--7-777-7-777--9-999-9-999--7-777--6-666--4-444--6-666--|
E|--5-555-5-555--7-777-7-777-----------------------4-444--|

    A            B            C#m
E|-----------------------------------------------------|
B|-----------------------------------------------------|
G|----------------------------6-666-6-666-6-666-6-666--|
D|--7-777-7-777--9-999-9-999--6-666-6-666-6-666-6-666--|
A|--7-777-7-777--9-999-9-999--4-444-4-444-4-444-4-444--|
E|--5-555-5-555--7-777-7-777---------------------------|

    A            B            E      E/D#   C#m    Ab
E|--------------------------------------------------------|
B|--------------------------------------------------------|
G|----------------------------9-999--8-888--6-666---------|
D|--7-777-7-777--9-999-9-999--9-999--9-999--6-666--6-666--|
A|--7-777-7-777--9-999-9-999--7-777--6-666--4-444--6-666--|
E|--5-555-5-555--7-777-7-777-----------------------4-444--|

    A            B      C#m
E|-----------------------------|
B|-----------------------------|
G|----------------------6-666--|
D|--7-777-7-777--9-999--6-666--|
A|--7-777-7-777--9-999--4-444--|
E|--5-555-5-555--7-777---------|

    B3       C#m7
E|--------------------|
B|--------------------|
G|--------------------| (3x)
D|--999-999--999-999--|
A|--666-666--777-777--|
E|--777-777--999-999--|

    A            B
E|----------------------------|
B|----------------------------|
G|----------------------------| (4x)
D|--7-777-7-777--9-999-9-999--|
A|--7-777-7-777--9-999-9-999--|
E|--5-555-5-555--7-777-7-777--|

Outro

Guitar 1
E|-----------------------------|
B|------9----------------------|
G|--------9-8------------------| (3x)
D|--------------6-7--77-9-7-6--|
A|--6^7-------9----------------|
E|-----------------------------|

Guitar 2
    E    A
E|------------|
B|------------|
G|--9-9-------| (3x)
D|--9-9--7-7--|
A|--7-7--7-7--|
E|-------5-5--|

Guitar 1
E|------------------|
B|------------------|
G|-------------9-8--|
D|-----6---7-----9--|
A|-6^7---7---7------|
E|------------------|

Guitar 2
    E    B7
E|-------7--|
B|-------7--|
G|--9-9--8--|
D|--9-9--7--|
A|--7-7--9--|
E|-------7--|


lyrics:

don't expect me to call you
i have better things to do with my time on your birthday
and i'm sure you'll be plenty busy
making your weekend plans with friends for a night you won't remember

it'll be a night where you will render syntax useless
and shine a bright light on a subject of distress
realize your emotions are falsely professed
one thing i'm sure it'll be great
you'll love the attention
your increasing heart rate
will decrease with every drink that you put down

now i don't have to worry
you have the company of someone else on your day with special meaning
and i'm sure my value is worthless to you
or else your lies wouldn't have found a way to get past your lips

would it kill you to think that i'm happy without you?
or make you crack smiles if i'm lonely with out you
now i know i should live my live without you
one thing it shows you have changed
your actions have proved your morale's not the same
nothing will mend the mistakes that you've made now
but i'll move on somehow

'cause i understand now that the time i've spent invested your love
was really invested in a lie
i've given my best and my best became just good enough for you
i'll be ok 'cause i hope you know i'm happy without you
it makes me smile 'cause i'm living without you
and i'll choke down these shots while toasting your memory
cause the one thing i'm doing today
is drinking in celebration
that i won't be there to increase your heart rate
and i hope yours decreases with every drink i put down
i put down
i put down
i put down
Добавлено: 07.11.2015
Вам также может быть интересно:
Другие материалы по этой песне:
  • Аккорды и текст

Страница создана 07.11.2015
http://primanota.ru/binary-heart/winterhaven-chords.htm
Привет, Гость.
Предлагаем пройти революционный курс по гитаре.
Подарок от PrimaNota.Ru, забирай!