PrimaNota.ru - самый крупный в мире бесплатный архив песенных текстов, аккордов, табулатур и нот


Binary Heart - Suicide Booth - таба, видео

Регистрация Запомнить меня
Войти через:  Facebook Google Twitter Vk Yandex Mail.ru

Binary Heart - Suicide Booth - таба, видео

Печатать
Просмотров: 118
-----------------------------------------------------------------
Suicide Booth - Binary Heart
-----------------------------------------------------------------

Tabbed by: Chris Johnert

Tuning: Standard

Intro
    Am                           G
E|--00-000-000-000-000-000-000-003--|
B|--11-111-111-111-111-111-111-113--|
G|--22-222-222-222-222-222-222-220--|
D|--22-222-222-222-222-222-222-220--|
A|--00-000-000-000-000-000-000-002--|
E|-------------------------------3--|

Verse 1
    Am              F               C               G           CG
E|--00-000-000-000-x00-000-000-000-x00-000-000-000-x33-333-333-x03--|
B|--11-111-111-111-x11-111-111-111-x11-111-111-111-x00-000-000-x13--|
G|--22-222-222-222-x22-222-222-222-x00-000-000-000-x00-000-000-x00--| (3x)
D|--22-222-222-222-x33-333-333-333-x22-222-222-222-x00-000-000-x20--|
A|--00-000-000-000-x---------------x33-333-333-333-x22-222-222-x32--|
E|-----------------x---------------x---------------x33-333-333-x-3--|

    Am              F               C               G             
E|--00-000-000-000-x00-000-000-000-x00-000-000-000-x33-333-333-333--|
B|--11-111-111-111-x11-111-111-111-x11-111-111-111-x00-000-000-000--|
G|--22-222-222-222-x22-222-222-222-x00-000-000-000-x00-000-000-000--|
D|--22-222-222-222-x33-333-333-333-x22-222-222-222-x00-000-000-000--|
A|--00-000-000-000-x---------------x33-333-333-333-x22-222-222-222--|
E|-----------------x---------------x---------------x33-333-333-333--|

Chorus 1
    C               E               Am       G        F
E|--0-0-00-000-000--0-0-00-000-000--0-00-00--3-33-33--0-00-00-0-03030--|
B|--1-1-11-111-111--0-0-00-000-000--1-11-11--3-33-33--1-11-11-1-11111--|
G|--0-0-00-000-000--1-1-11-111-111--2-22-22--0-00-00--2-22-22-2-22222--|
D|--2-2-22-222-222--2-2-22-222-222--2-22-22--0-00-00--3-33-33-3-33333--|
A|--3-3-33-333-333--2-2-22-222-222--0-00-00--2-22-22-------------------|
E|------------------0-0-00-000-000-----------3-33-33-------------------|

    C               E               Am       G        F          CG
E|--0-0-00-000-000--0-0-00-000-000--0-00-00--3-33-33--0-00-00-0-x03--|
B|--1-1-11-111-111--0-0-00-000-000--1-11-11--3-33-33--1-11-11-1-x13--|
G|--0-0-00-000-000--1-1-11-111-111--2-22-22--0-00-00--2-22-22-2-x00--|
D|--2-2-22-222-222--2-2-22-222-222--2-22-22--0-00-00--3-33-33-3-x20--|
A|--3-3-33-333-333--2-2-22-222-222--0-00-00--2-22-22------------x32--|
E|------------------0-0-00-000-000-----------3-33-33------------x-3--|

Verse 2
    Am              F               C               G           CG
E|--00-000-000-000-x00-000-000-000-x00-000-000-000-x33-333-333-x03--|
B|--11-111-111-111-x11-111-111-111-x11-111-111-111-x00-000-000-x13--|
G|--22-222-222-222-x22-222-222-222-x00-000-000-000-x00-000-000-x00--| (3x)
D|--22-222-222-222-x33-333-333-333-x22-222-222-222-x00-000-000-x20--|
A|--00-000-000-000-x---------------x33-333-333-333-x22-222-222-x32--|
E|-----------------x---------------x---------------x33-333-333-x-3--|

    Am              F               C               G             
E|--00-000-000-000-x00-000-000-000-x00-000-000-000-x33-333-333-333--|
B|--11-111-111-111-x11-111-111-111-x11-111-111-111-x00-000-000-000--|
G|--22-222-222-222-x22-222-222-222-x00-000-000-000-x00-000-000-000--|
D|--22-222-222-222-x33-333-333-333-x22-222-222-222-x00-000-000-000--|
A|--00-000-000-000-x---------------x33-333-333-333-x22-222-222-222--|
E|-----------------x---------------x---------------x33-333-333-333--|

Chorus 2
    C               E               Am       G        F
E|--0-0-00-000-000--0-0-00-000-000--0-00-00--3-33-33--0-00-00-0-03030--|
B|--1-1-11-111-111--0-0-00-000-000--1-11-11--3-33-33--1-11-11-1-11111--|
G|--0-0-00-000-000--1-1-11-111-111--2-22-22--0-00-00--2-22-22-2-22222--|
D|--2-2-22-222-222--2-2-22-222-222--2-22-22--0-00-00--3-33-33-3-33333--|
A|--3-3-33-333-333--2-2-22-222-222--0-00-00--2-22-22-------------------|
E|------------------0-0-00-000-000-----------3-33-33-------------------|

    C               E               Am       G        F          CG
E|--0-0-00-000-000--0-0-00-000-000--0-00-00--3-33-33--0-00-00-0-x03--|
B|--1-1-11-111-111--0-0-00-000-000--1-11-11--3-33-33--1-11-11-1-x13--|
G|--0-0-00-000-000--1-1-11-111-111--2-22-22--0-00-00--2-22-22-2-x00--|
D|--2-2-22-222-222--2-2-22-222-222--2-22-22--0-00-00--3-33-33-3-x20--|
A|--3-3-33-333-333--2-2-22-222-222--0-00-00--2-22-22------------x32--|
E|------------------0-0-00-000-000-----------3-33-33------------x-3--|

Bridge
    Am                           
E|--00-000-000-000-000-000-000-00--|
B|--11-111-111-111-111-111-111-11--|
G|--22-222-222-222-222-222-222-22--|
D|--22-222-222-222-222-222-222-22--|
A|--00-000-000-000-000-000-000-00--|
E|---------------------------------|

    F               G                c        E        Am
E|--00-000-000-000--3-3-33-3-33-33---0-00-00--0-00-00--0-00-00-0-00-00000--|
B|--1-1-11-1-11-11--3-3-33-3-33-33---1-11-11--0-00-00--1-11-11-1-11-13131--|
G|--2-2-22-2-22-22--0-0-00-0-00-00---0-00-00--1-11-11--2-22-22-2-22-22222--| (3x)
D|--3-3-33-3-33-33--0-0-00-0-00-00---2-22-22--2-22-22--2-22-22-2-22-22222--|
A|------------------2-2-22-2-22-22---3-33-33--2-22-22--0-00-00-0-00-00000--|
E|------------------3-3-33-3-33-33------------0-00-00----------------------|

    F               Fm
E|--1-1-11-1-11-11--1--|
B|--1-1-11-1-11-11--1--|
G|--2-2-22-2-22-22--1--|
D|--3-3-33-3-33-33--3--|
A|--3-3-33-3-33-33--3--|
E|--1-1-11-1-11-11--1--|

Chorus 3
    C               E               Am       G        F
E|--0-0-00-000-000--0-0-00-000-000--0-00-00--3-33-33--0-00-00-0-03030--|
B|--1-1-11-111-111--0-0-00-000-000--1-11-11--3-33-33--1-11-11-1-11111--|
G|--0-0-00-000-000--1-1-11-111-111--2-22-22--0-00-00--2-22-22-2-22222--| (3x)
D|--2-2-22-222-222--2-2-22-222-222--2-22-22--0-00-00--3-33-33-3-33333--|
A|--3-3-33-333-333--2-2-22-222-222--0-00-00--2-22-22-------------------|
E|------------------0-0-00-000-000-----------3-33-33-------------------|

    C               E               Am       G        F          CG
E|--0-0-00-000-000--0-0-00-000-000--0-00-00--3-33-33--0-00-00-0-x03--|
B|--1-1-11-111-111--0-0-00-000-000--1-11-11--3-33-33--1-11-11-1-x13--|
G|--0-0-00-000-000--1-1-11-111-111--2-22-22--0-00-00--2-22-22-2-x00--|
D|--2-2-22-222-222--2-2-22-222-222--2-22-22--0-00-00--3-33-33-3-x20--|
A|--3-3-33-333-333--2-2-22-222-222--0-00-00--2-22-22------------x32--|
E|------------------0-0-00-000-000-----------3-33-33------------x-3--|

Outro
    Am                           
E|--00-000-000-000-000-000-000-00--|
B|--11-111-111-111-111-111-111-11--|
G|--22-222-222-222-222-222-222-22--|
D|--22-222-222-222-222-222-222-22--|
A|--00-000-000-000-000-000-000-00--|
E|---------------------------------|


lyrics:

to whom it may concern
i'm sorry for this letter
i present to you tonight
because i've tried things differently
but it turns out the same for me
getting up by five and out of work at nine

and all this social deprevation left me empty
and hollow inside, the shell i had was once filled with hope
taken over by a work ethic and schedule for sleep
that all my dreams are slipping far from a string i hold

in all my life
i've tried to be the one who never forgot what was home
and now my life
consists of being too far gone to go back to that home
or will i?

i've seen better days, i've lived a better life than the life that i've lived now, 
before my response to responsibility was staying in the music scene
and giving up my dreams just to make all ends meet

my feelings subside, with the bills stacked so high
that i couldn't afford to go down that road that was filled with laughter and dreams
adult responsibilities that forces me to stay in this financial stability

but now i have the money just no meaning
to live in this life
i haven't seen the friends i have in weeks
and the music that i put all of my blood and sweat into
its the time to do it all again i seek

in all my life
i've tried to be the one who never forgot what was home
and now my life
consists of being too far gone to go back to that home
or will i?

my days are close to numbered
so count on me to end this all before it ends me first
and i'll be counting seconds
before my untimely demise gets any worse
as you read this letter
please don't think any worse of me
because i'd rather be ...
here with you

in all my life
i've tried to be the one who never forgot what was home
and now my life
consists of being too far gone to go back to that home

before i go
i'd like to say all the cliche things that you'd want to know
and on that note
i'll end this by signing off the way i always do.
peace and love,
- me
Добавлено: 07.11.2015
Другие материалы по этой песне:
  • Аккорды и текст

Страница создана 07.11.2015
http://primanota.ru/binary-heart/suicide-booth-chords.htm
Привет, Гость.
Предлагаем пройти революционный курс по гитаре.
Подарок от PrimaNota.Ru, забирай!