PrimaNota.ru - самый крупный в мире бесплатный архив песенных текстов, аккордов, табулатур и нот


Binary Heart - My Last Night In San Francisco - таба, видео

Регистрация Запомнить меня
Войти через:  Facebook Google Twitter Vk Yandex Mail.ru

Binary Heart - My Last Night In San Francisco - таба, видео

Печатать
Просмотров: 104
-----------------------------------------------------------------
MY LAST NIGHT IN SAN FRANCISCO - Binary Heart
-----------------------------------------------------------------
Tabbed by: Chris Johnert

Tuning: Standard

Verse 1:
e|---------------------------------------|
B|---------------------------------------|
G|---------------------------------------|
D|--22222222-00000000-33333333-22222200--| (4x)
A|--33333333-33333333-33333333-33333333--|
E|---------------------------------------|

e|---------------------------------------------------------|
B|---------------------------------------------------------|
G|---------------------------------------------------------|
D|--22222222-----------------------------------------------|
A|--00000000-22222222-33333333-77777777-33333333-22222222--|
E|-----------33333333-55555555-44444444-11111111-33333333--|

e|---------------------------------------|
B|---------------------------------------|
G|---------------------------------------|
D|--22222222-00000000-33333333-22222200--| (2x)
A|--33333333-33333333-33333333-33333333--|
E|---------------------------------------|

e|---------------------------------------------------------|
B|---------------------------------------------------------|
G|---------------------------------------------------------|
D|--22222222-----------------------------------------------|
A|--00000000-22222222-33333333-77777777-33333333-22222222--|
E|-----------33333333-55555555-44444444-11111111-33333333--|

e|-----------------------------3--|
B|-----------------------------0--|
G|-----------------------------0--|
D|-22222222-22222222-----------0--|
A|-00000000-00000000-33333333--2--|
E|-------------------11111111--3--|

Riff Thing:
e|--------------------------------------------------------------------|
B|--------------------------------------------------------------------|
G|--5-5-5-5---------9-9-9-9-10101010-7-7-7-7--------------------------|
D|--5-5-5-5-5-5-5-5-9-9-9-9-10101010-7-7-7-7-7-7-7-7-3-3-3-3-55-55-5--|
A|--3-3-3-3-5-5-5-5-7-7-7-7-8-8-8-8--5-5-5-5-7-7-7-7-3-3-3-3-55-55-5--|
E|----------3-3-3-3--------------------------5-5-5-5-1-1-1-1-33-33-3--|

Verse 2:
e|------------------------------------|
B|---1-11-11-1-11-11-1-11-11-1-11-11--|
G|---0-00-00-0-00-00-0-00-00-0-00-00--|
D|---2-22-22-0-00-00-3-33-33-2-22-20--|
A|---3-33-33-3-33-33-3-33-33-3-33-33--|
E|------------------------------------|

e|--------------------------------------|
B|--------------------------------------|
G|--------------------------------------|
D|--7-77-77--5-55-55--7-77-77--6-66-66--|
A|--7-77-77--5-55-55--7-77-77--7-77-77--|
E|--5-55-55--3-33-33--5-55-55--4-44-44--|

e|------------------------------------|
B|------------------------------------|
G|------------------------------------|
D|--3-33-33--5-55-55--77-777-777-777--|
A|--3-33-33--5-55-55--77-777-777-777--|
E|--1-11-11--3-33-33--55-555-555-555--|

e|------------------------------------------|
B|------------------------------------------|
G|----------------------5-5-5-4-------------|
D|--3-3-3333--5-5-5555--5-5-5-5-5-55--5555--|
A|--3-3-3333--5-5-5555--3-3-3-2-5-55--5555--|
E|--1-1-1111--3-3-3333----------3-33--3333--|

Bridge:
e|-------------------------------------------------|
B|-------------------------------------------------|
G|--------------------------------------5-5-5-4----|
D|--3-3-333--3-3-333--3-3-333--3-3-333--5-5-5-5-5--| (3x)
A|--3-3-333--3-3-333--3-3-333--3-3-333--3-3-3-2-5--|
E|--1-1-111--1-1-111--1-1-111--1-1-111----------3--|

e|--------------------------------------------|
B|--------------------------------------------|
G|--------------------------------------------|
D|--3333-3333-3333-3333--5555-5555-5555-5555--|
A|--3333-3333-3333-3333--5555-5555-5555-5555--|
E|--1111-1111-1111-1111--3333-3333-3333-3333--|

e|------------------------------------------------------------------|
B|------------------------------------------------------------------|
G|--5555-5555--4444-4444--------------------------------------------|
D|--5555-5555--5555-5555--3333-3333-3333-3333--5555-5555-5555-5555--| (2x)
A|--3333-3333--2222-2222--3333-3333-3333-3333--5555-5555-5555-5555--|
E|------------------------1111-1111-1111-1111--3333-3333-3333-3333--|

Verse 3:
e|---------------------------------------|
B|---------------------------------------|
G|---------------------------------------|
D|--22222222-00000000-33333333-22222200--| (6x)
A|--33333333-33333333-33333333-33333333--|
E|---------------------------------------|

lyrics

If I had one wish
it would be you staring with your sultry eyes
From across the room
where I'll be waiting poised and steady

Yet I'm a nervous wreck, cause this means more than all the rest
Because if this wish came true, I doubt I'd be composed

And you came to me,
and whispered softly "Things will be ok"
And as I held you close
everything but you vanished right away

I startled out of sleep, and tried my best not to believe
that this was just a dream that I composed
on my last night in San Francisco

You were on my mind, and I couldn't help to shake that feeling
With your lips so soft pressing against mine, swelling up my breathing

To a rapid state, pushing my lungs to keep up with its pace
so these troubles wouldn't distract from the thoughts of you
The girl who could make all my wishes true

Never a time when your kiss would taste so sweet
Currently in a lie where my mind deceives
Wake up, think fast, breath slow, settle down, settle down, settle down

You're not around
So far across the states from where I am now,
safe and sound,
lying in your own bed at this hour
dreaming of a wish to call your own

You're a pretty girl with a wit that cuts through conversations
Leave a trace of you where you go left for observation
There's a lucky one who you'll love and with them be forever true 
If I had one wish it would be you
Добавлено: 07.11.2015
Другие материалы по этой песне:
  • Аккорды и текст

Страница создана 07.11.2015
http://primanota.ru/binary-heart/my-last-night-in-san-francisco-chords.htm
Привет, Гость.
Предлагаем пройти революционный курс по гитаре.
Подарок от PrimaNota.Ru, забирай!