PrimaNota.ru - самый крупный в мире бесплатный архив песенных текстов, аккордов, табулатур и нот


Binary Heart - The Lucky Ones - таба, видео

Регистрация Запомнить меня
Войти через:  Facebook Google Twitter Vk Yandex Mail.ru

Binary Heart - The Lucky Ones - таба, видео

Печатать
Просмотров: 116
-----------------------------------------------------------------
The Lucky Ones - Binary Heart
-----------------------------------------------------------------

Tabbed by: Chris Johnert

Tuning: Standard

Verse 1

  (Palm Mute)
    A                Absus4           A                Absus4
E|----------------------------------------------------------------------|
B|--5-5-5-5-5-5-5-5--5-5-5-5-5-5-5-5--5-5-5-5-5-5-5-5--5-5-5-5-5-5-5-5--|
G|--6-6-6-6-6-6-6-6--6-6-6-6-6-6-6-6--6-6-6-6-6-6-6-6--6-6-6-6-6-6-6-6--|
D|--7-7-7-7-7-7-7-7--6-6-6-6-6-6-6-6--7-7-7-7-7-7-7-7--6-6-6-6-6-6-6-6--|
A|----------------------------------------------------------------------|
E|----------------------------------------------------------------------|

    D
E|-----------------------------------|
B|--7-7-7-7-7-7-7-7-7-7-7-7-7-8-7-x--|
G|--7-7-7-7-7-7-7-7-7-7-7-7-7-7-7-x--|
D|--7-7-7-7-7-7-7-7-7-7-7-7-7-7-7-x--|
A|-----------------------------------|
E|-----------------------------------|

    A                Absus4           A                Absus4
E|----------------------------------------------------------------------|
B|--5-5-5-5-5-5-5-5--5-5-5-5-5-5-5-5--5-5-5-5-5-5-5-5--5-5-5-5-5-5-5-5--|
G|--6-6-6-6-6-6-6-6--6-6-6-6-6-6-6-6--6-6-6-6-6-6-6-6--6-6-6-6-6-6-6-6--|
D|--7-7-7-7-7-7-7-7--6-6-6-6-6-6-6-6--7-7-7-7-7-7-7-7--6-6-6-6-6-6-6-6--|
A|----------------------------------------------------------------------|
E|----------------------------------------------------------------------|

    D                                Dm
E|--2-2-2-2-2-2-2-2-2-2-2-2-2-2-2-2--1-1-1-1-1-1-1-1-1-1-1-1-1-1-1-1--|
B|--3-3-3-3-3-3-3-3-3-3-3-3-3-3-3-3--3-3-3-3-3-3-3-3-3-3-3-3-3-3-3-3--|
G|--2-2-2-2-2-2-2-2-2-2-2-2-2-2-2-2--2-2-2-2-2-2-2-2-2-2-2-2-2-2-2-2--|
D|--------------------------------------------------------------------|
A|--------------------------------------------------------------------|
E|--------------------------------------------------------------------|

Riff to Chorus

E|-----------------------------------------------------------------------------------------------------|
B|-----------------------------------------------------------------------------------------------------|
G|---------------7-7----------------------------------------------------------7-7----------------------|
D|-6^7-7--7-7-7--7-7--7-x--6^7-7-7--7-7-7--7-7-7--7-7--x-x-x-x--6^7-7--7-7-7--7-7--7-6^7-7-7--7-7-7-7--|
A|-6^7-7--7-7-7--5-5--7-x--6^7-7-7--7-7-7--7-7-7--7-7--x-x-x-x--6^7-7--7-7-7--5-5--7-6^7-7-7--7-7-7-7--|
E|-4^5-5--5-5-5-------5-x--4^5-5-5--5-5-5--5-5-5--5-5--x-x-x-x--4^5-5--5-5-5-------5-4^5-5-5--5-5-5-5--|

E|-----------|
B|-----------|
G|-----------|
D|--7-7-4-4--|
A|--5-4-2-4--|
E|--------2--|

Chorus 1

    F#         B          D
E|---------------------------------------------|
B|---------------------------------------------|
G|-------------4444-4444--7777-7777-7777-7777--| (3x)
D|--4444-4444--4444-4444--7777-7777-7777-7777--|
A|--4444-4444--2222-2222--5555-5555-5555-5555--|
E|--2222-2222----------------------------------|

    F#         B          E
E|---------------------------------------------|
B|---------------------------------------------|
G|-------------4444-4444--9999 9999 9999 9999--|
D|--4444-4444--4444-4444--9999 9999 9999 9999--|
A|--4444-4444--2222-2222--7777-7777-7777-7777--|
E|--2222-2222----------------------------------|

Verse 2

E|-------------------------------------------------------------------|
B|-------------------------------------------------------------------|
G|----------------------------------------------7777-7777-7777-7777--| (2x)
D|--7777-7777--6666-6666--7777-7777--6666-6666--7777-7777-7777-7777--|
A|--7777-7777--7777-7777--7777-7777--7777-7777--5555-5555-5555-5555--|
E|--5555-5555--4444-4444--5555-5555--4444-4444-----------------------|

E|----------------------------------------------|
B|----------------------------------------------|
G|----------------------------------------------| 
D|--7777-7777--6666-6666--7777-7777--6666-6666--|
A|--7777-7777--7777-7777--7777-7777--7777-7777--|
E|--5555-5555--4444-4444--5555-5555--4444-4444--|

E|--------------------------------------------|
B|--------------------------------------------|
G|--5555-5555-5555-5555--6666-6666-6666-6666--|
D|--5555-5555-5555-5555--7777-7777-7777-7777--|
A|--5555-5555-5555-5555--4444-4444-4444-4444--|
E|--------------------------------------------|

Chorus 2

    F#         B          D
E|---------------------------------------------|
B|---------------------------------------------|
G|-------------4444-4444--7777-7777-7777-7777--| (3x)
D|--4444-4444--4444-4444--7777-7777-7777-7777--|
A|--4444-4444--2222-2222--5555-5555-5555-5555--|
E|--2222-2222----------------------------------|

    F#         B          E
E|---------------------------------------------|
B|---------------------------------------------|
G|-------------4444-4444--9999 9999 9999 9999--|
D|--4444-4444--4444-4444--9999 9999 9999 9999--|
A|--4444-4444--2222-2222--7777-7777-7777-7777--|
E|--2222-2222----------------------------------|

E|-----------------------------------------------------------------------------------------------------|
B|-----------------------------------------------------------------------------------------------------|
G|---------------7-7----------------------------------------------------------7-7----------------------|
D|-6^7-7--7-7-7--7-7--7-x--6^7-7-7--7-7-7--7-7-7--7-7--x-x-x-x--6^7-7--7-7-7--7-7--7-6^7-7-7--7-7-7-7--|
A|-6^7-7--7-7-7--5-5--7-x--6^7-7-7--7-7-7--7-7-7--7-7--x-x-x-x--6^7-7--7-7-7--5-5--7-6^7-7-7--7-7-7-7--|
E|-4^5-5--5-5-5-------5-x--4^5-5-5--5-5-5--5-5-5--5-5--x-x-x-x--4^5-5--5-5-5-------5-4^5-5-5--5-5-5-5--|

Outro

  (Palm Mute)
    A                Absus4           A                Absus4
E|----------------------------------------------------------------------|
B|--5-5-5-5-5-5-5-5--5-5-5-5-5-5-5-5--5-5-5-5-5-5-5-5--5-5-5-5-5-5-5-5--|
G|--6-6-6-6-6-6-6-6--6-6-6-6-6-6-6-6--6-6-6-6-6-6-6-6--6-6-6-6-6-6-6-6--|
D|--7-7-7-7-7-7-7-7--6-6-6-6-6-6-6-6--7-7-7-7-7-7-7-7--6-6-6-6-6-6-6-6--|
A|----------------------------------------------------------------------|
E|----------------------------------------------------------------------|

    D
E|-----------------------------------|
B|--7-7-7-7-7-7-7-7-7-7-7-7-7-8-7-x--|
G|--7-7-7-7-7-7-7-7-7-7-7-7-7-7-7-x--|
D|--7-7-7-7-7-7-7-7-7-7-7-7-7-7-7-x--|
A|-----------------------------------|
E|-----------------------------------|

    A                Absus4           A                Absus4
E|----------------------------------------------------------------------|
B|--5-5-5-5-5-5-5-5--5-5-5-5-5-5-5-5--5-5-5-5-5-5-5-5--5-5-5-5-5-5-5-5--|
G|--6-6-6-6-6-6-6-6--6-6-6-6-6-6-6-6--6-6-6-6-6-6-6-6--6-6-6-6-6-6-6-6--|
D|--7-7-7-7-7-7-7-7--6-6-6-6-6-6-6-6--7-7-7-7-7-7-7-7--6-6-6-6-6-6-6-6--|
A|----------------------------------------------------------------------|
E|----------------------------------------------------------------------|

    D                                Dm
E|--2-2-2-2-2-2-2-2-2-2-2-2-2-2-2-2--1-1-1-1-1-1-1-1-1-1-1-1-1-1-1-1--|
B|--3-3-3-3-3-3-3-3-3-3-3-3-3-3-3-3--3-3-3-3-3-3-3-3-3-3-3-3-3-3-3-3--|
G|--2-2-2-2-2-2-2-2-2-2-2-2-2-2-2-2--2-2-2-2-2-2-2-2-2-2-2-2-2-2-2-2--|
D|--------------------------------------------------------------------|
A|--------------------------------------------------------------------|
E|--------------------------------------------------------------------|

    Bm                               E                                A(Hold)
E|--2-2-2-2-2-2-2-2-2-2-2-2-2-2-2-2--0-0-0-0-0-0-0-0-0-0-0-0-0-0-0-0--0--|
B|--3-3-3-3-3-3-3-3-3-3-3-3-3-3-3-3--0-0-0-0-0-0-0-0-0-0-0-0-0-0-0-0--2--|
G|--4-4-4-4-4-4-4-4-4-4-4-4-4-4-4-4--1-1-1-1-1-1-1-1-1-1-1-1-1-1-1-1--2--|
D|--4-4-4-4-4-4-4-4-4-4-4-4-4-4-4-4--2-2-2-2-2-2-2-2-2-2-2-2-2-2-2-2--2--|
A|--2-2-2-2-2-2-2-2-2-2-2-2-2-2-2-2--2-2-2-2-2-2-2-2-2-2-2-2-2-2-2-2--0--|
E|-----------------------------------0-0-0-0-0-0-0-0-0-0-0-0-0-0-0-0--0--|


lyrics:

we wander now, hopeless
the kiss we shared is now a memory
i made mistakes and wear them
like tattered clothes for my wedding's first dance
so if i'm dreaming wake me up
to face the dawn and process
the past night without the fog of alcohol
in which i learned the fire
deep in your heart thrives on something more than this
i just hope i'm what you need

the silence created makes it just that much harder to think
i lie awake at night reliving every word between every drink
anticipation transcends sleep of dreaming to see you again
and pray that things between us stay the same

we have regrets, we show them
in our actions that differed from before
and they speak more than we have
in the last week oh how i miss those conversations
i'm just trying to understand
the miscommunication got lost between both of our lips
romances form from an alcohol induced friendly kiss
some loves will last forever, and be glad about their mistakes
while others tend to walk away ashamed ... oooh

they walk away ashamed

i wander now, hopelessly
holding on to a spark i thought that burned
deep in your heart, yet still i
can't help but think
we could have been the lucky ones
been the lucky ones
been the lucky ones
Добавлено: 07.11.2015
Другие материалы по этой песне:
  • Аккорды и текст

Страница создана 07.11.2015
http://primanota.ru/binary-heart/lucky-ones-chords.htm
Привет, Гость.
Предлагаем пройти революционный курс по гитаре.
Подарок от PrimaNota.Ru, забирай!