PrimaNota.ru - самый крупный в мире бесплатный архив песенных текстов, аккордов, табулатур и нот


Billy Vaughn - Sail Along The Silvery Moon - бас-таба, видео

Регистрация Запомнить меня
Войти через:  Facebook Google Twitter Vk Yandex Mail.ru

Billy Vaughn - Sail Along The Silvery Moon - бас-таба, видео

Печатать
Просмотров: 59
Уроки эстрадного вокала в Санкт-Петербурге
-------------------------------------------------------------------------------
          Sail Along The Silvery Moon - Billy Vaughn & His Orchestra
-------------------------------------------------------------------------------
Tabbed by: CorporalCrunch 

Tuning: Standard

Part 1
G|-------------------------5-----------------------------5---5---------|
D|7-6-7-------7------7-6-7---8-5------5-4-5-------5--------7---8-7-----|
A|------5-7/8-------------------------------3-5/6----------------------|
E|---------------------------------------------------------------------|

Part 2
G|-------------------------5-----------------------------5-4-3-----|
D|7-6-7-------7------7-6-7---8-5------5-4-5-------5------------2-3-|
A|------5-7/8-------------------------------3-5/6------------------|
E|-----------------------------------------------------------------|

Bridge:
G|-----------7-5--7-5--7-5--7-5--7-5------------------|
D|7-7-5---------8----8----8----8---------8-8-8-10-7---|
A|------8-----------------------------8---------------|
E|----------------------------------------------------|

G|---7-5--7-5--7-5--7-5--7-5---2-0---0--------------|
D|------8----8----8----8-----------3----------------|
A|8-------------------------------------------------|
E|--------------------------------------------------|

Part 3:
G|-------------------------5-----------------------------5-4-3-----|
D|7-6-7-------7------7-6-7---8-5------5-4-5-------5------------2-3-|
A|------5-7/8-------------------------------3-5/6------------------|
E|-----------------------------------------------------------------|

Bridge 2:
G|-----------7-5--7-5--7-5--7-5--7-5------------------|
D|7-7-5---------8----8----8----8---------8-8-8-10-7---|
A|------8-----------------------------8---------------|
E|----------------------------------------------------|


G|---7-5--7-5--7-5--7-5--7-5---2-0---0--------------|
D|------8----8----8----8-----------3----------------|
A|8-------------------------------------------------|
E|--------------------------------------------------|

Conclusion (Same as Parts 2 & 3):
G|-------------------------5-----------------------------5-4-3-----|
D|7-6-7-------7------7-6-7---8-5------5-4-5-------5------------2-3-|
A|------5-7/8-------------------------------3-5/6------------------|
E|-----------------------------------------------------------------|

| /  slide up

===============================================================================
Добавлено: 22.09.2015
Другие материалы по этой песне:
  • Аккорды и текст

Страница создана 22.09.2015
http://primanota.ru/billy-vaughn/sail-along-silvery-moon-chords.htm
Привет, Гость.
Предлагаем пройти революционный курс по гитаре.
Подарок от PrimaNota.Ru, забирай!