PrimaNota.ru - самый крупный в мире бесплатный архив песенных текстов, аккордов, табулатур и нот


Billy The Kid - Loser - таба, видео

Регистрация Запомнить меня
Войти через:  Facebook Google Twitter Vk Yandex Mail.ru

Billy The Kid - Loser - таба, видео

Печатать
Просмотров: 73
                          Billy the Kid - Loser                            =
      


                                                             
(Capo on 2nd fret)



   Intro (Acoustic Gtr)                                                    =
     
E||------------0--0------0-----|-------0--0------0--0------0-|
B||--0----0----0--0------0-0---|-------0--0------0--0------0-|
G||--0----0--0-0--0----0---0-0-|--0--0-0--0-0--0-0--0-0--0-0-|
D||--2----2--2---------------0-|--2--2------2--2------2--2---|
A||--2-------2------2--------2-|--3--3------3--3------3--3---|
E||-----------------0----------|-----------------------------|


                                                    
-------0----0--0------0-----|-------0--0------------|
--0----0----0--0------0-0---|-------0--0------------|
--0----0--0-0--0----0---0-0-|--0--0-0--0-0----------|
--2-------2---------------0-|--2--2------2----------|
--2-------2------2--------2-|--3--3------3----------|
-----------------0----------|-----------------------|


Verse 1&2                                                    4x
|-------------0--0------0-----|-------0--0------0--0------0--||
|---0----0----0--0------0-0---|-------0--0------0--0------0--||
|*--0----0--0-0--0----0---0-0-|--0--0-0--0-0--0-0--0-0--0-0-*||
|*--2----2--2---------------0-|--2--2------2--2------2--2---*||
|---2-------2------2--------2-|--3--3------3--3------3--3----||
|------------------0----------|------------------------------||


                                                    
-------0----0--0------0-----|-------0--0------------|
--0----0----0--0------0-0---|-------0--0------------|
--0----0--0-0--0----0---0-0-|--0--0-0--0-0----------|
--2-------2---------------0-|--2--2------2----------|
--2-------2------2--------2-|--3--3------3----------|
-----------------0----------|-----------------------|


Chorus (Distortion)                                                       
--------------0--0--0--0--|----------------------------|
--0----0--0-0-3--3--3--3--|--1--1--1-----1--1--1---1-1-|
--0----0--0-0-2--2--2--2--|--0--0--0-----0--0--0---0-0-|
--2----2--2-2-0--0--0--0--|--2--2--0h2---2--2--0h2-2-2-|
--2----2--2-2-------------|--3--3--3-----3--3--3---3-3-|
--0----0--0-0-------------|----------------------------|


                                                  
--------------0--0--0--0--|-----------------------|
--0----0--0-0-3--3--3--3--|------------0----------|
--0----0--0-0-2--2--2--2--|--0-0-0-0---2----------|
--2----2--2-2-0--0--0--0--|--2-2-2-2---2----------|
--2----2--2-2-------------|--2-2-2-2---0----------|
--0----0--0-0-------------|--0-0-0-0--------------|


Gtr solo (Synthesizer sound)                                               =
   
--------------------------|------------------------|
--------------------------|------------------------|
--18~-----21--16~----/18--|--14~-----------14--16--|
--------------------------|------------------------|
--------------------------|------------------------|
--------------------------|------------------------|


                                                                        
-------------------------------|--------------------||
-------------------------------|--------------------||
--18~-----21--16~-----16h18h16\|--14~---------------||
-------------------------------|--------------------||
-------------------------------|--------------------||
-------------------------------|--------------------||

Tabbed by Ren=E9 Bijloo - EBijloo@cs.com
     
Добавлено: 29.08.2013
Другие материалы по этой песне:
  • Аккорды и текст

Страница создана 29.08.2013
http://primanota.ru/billy-the-kid/loser-chords.htm
Привет, Гость.
Предлагаем пройти революционный курс по гитаре.
Подарок от PrimaNota.Ru, забирай!