PrimaNota.ru - самый крупный в мире бесплатный архив песенных текстов, аккордов, табулатур и нот


Billy Talent - Turn Your Back - текст песни, таба, бас-таба, видео

Регистрация Запомнить меня
Войти через:  Facebook Google Twitter Vk Yandex Mail.ru

Billy Talent - Turn Your Back - текст песни, таба, бас-таба, видео

Печатать
Просмотров: 430
Artist: Billy Talent
Song: Turn Your Back
Tuning: Drop D [D-A-D-G-B-e]
Tabbed originally by George92


Based off the live recording in Oslo, Norway.
Strumming patterns in verses, chorus', and the bridge are left for you to figure out.



INTRO
e|-------------------------------------------------------------------------|
B|--------------------7---7-7-7-7-7-7-7--3---3-3--2---2-2------------------|
G|--------------------7---7-7-7-7-7-7-7--4---4-4--2---2-2------------------|
D|-2---2-2-0-2-5-2-0--7---7-7-7-7-7-7-7--4---4-4--2---2-2------------2-2-2-|
A|-2---2-2-0-2-5-2-0--5---5-5-5-5-5-5-5--2---2-2--0---0-0------------2-2-2-|
D|-2---2-2-0-2-5-2-0---------------------------------------5-9-7-5-7-2-2-2-|

e|-------------|
B|-------------|
G|-------------|
D|-2---2-2-----| x4
A|-2---2-2-5---|
D|-2---2-2-----|


VERSE
e|---------------------------------------------------------|
B|-------------3-------------3-----------------------------|
G|-------------4-------------4-----------------------------|
D|-2-----------4-------------4-------------2-2-2-0-2-2-2-0-| x2
A|-2-----------2-------------2-------------2-2-2-0-2-2-2-0-|
D|-2-------------------------------------0-2-2-2-0-2-2-2-0-|


CHORUS
e|-5----------------------------------------------------|
B|-5-----------8-------------7------------5-------------|
G|-5-----------9-------------7------------5-------------|
D|-7-----------9-------------7------------5-------------| x2
A|-0-----------7-------------5------------3-------------|
D|------------------------------------------------------|


VERSE
e|-------------------------------------------------------------------------|
B|--------------------7------------------3---3-3--2---2-2------------------|
G|--------------------7------------------4---4-4--2---2-2------------------|
D|-2------------------7------------------4---4-4--2---2-2------------2-2-2-|
A|-2------------------5------------------2---2-2--0---0-0------------2-2-2-|
D|-2-------------------------------------------------------5-9-7-5-7-2-2-2-|

On refrain, instead of E5 for the last chord it is a C:
e|-------|
B|---5---|
G|---5---|
D|---5---|
A|---3---|
D|-------|

e|-------------|
B|-------------|
G|-------------|
D|-2---2-2-----| x4
A|-2---2-2-5---|
D|-2---2-2-----|

e|---------------------------------------------------------|
B|-------------3-------------3-----------------------------|
G|-------------4-------------4-----------------------------|
D|-2-----------4-------------4-------------2-2-2-0-2-2-2-0-| x2
A|-2-----------2-------------2-------------2-2-2-0-2-2-2-0-|
D|-2-------------------------------------0-2-2-2-0-2-2-2-0-|


CHORUS
e|-5----------------------------------------------------|
B|-5-----------8-------------7------------5-------------|
G|-5-----------9-------------7------------5-------------|
D|-7-----------9-------------7------------5-------------| x2
A|-0-----------7-------------5------------3-------------|
D|------------------------------------------------------|


VERSE
e|-------------------------------------------------------------------------|
B|--------------------7------------------3---3-3--2---2-2------------------|
G|--------------------7------------------4---4-4--2---2-2------------------|
D|-2------------------7------------------4---4-4--2---2-2------------2-2-2-|
A|-2------------------5------------------2---2-2--0---0-0------------2-2-2-|
D|-2-------------------------------------------------------5-9-7-5-7-2-2-2-|

e|-------------------------------------------------------------------------|
B|--------------------7---7-7-7-7-7-7-7--3---3-3--2---2-2------------------|
G|--------------------7---7-7-7-7-7-7-7--4---4-4--2---2-2------------------|
D|-2---2-2-0-2-5-2-0--7---7-7-7-7-7-7-7--4---4-4--2---2-2------------2-2-2-|
A|-2---2-2-0-2-5-2-0--5---5-5-5-5-5-5-5--2---2-2--0---0-0------------2-2-2-|
D|-2---2-2-0-2-5-2-0---------------------------------------5-9-7-5-7-2-2-2-|

Again, play a C on the refrain.


BRIDGE
On refrain, play the 2nd bar for the first chord.
e|--7------------7-------------5--------------3-------------|---10---|
B|--8------------7-------------5--------------3-------------|---8----|
G|--9------------7-------------5--------------4-------------|---9----|
D|----------------------------------------------------------|--------|
A|----------------------------------------------------------|--------|
D|----------------------------------------------------------|--------|

e|-------|                   |-----|
B|--2----|                   |-----|
G|--2----|                   |-----|
D|--2----| ("No way...")     |--2--|
A|--0----|                   |--2--|
D|-------|                   |--2--|


OUTRO
e|-------------------------------------------------------------------------|
B|--------------------7------------------3---3-3--2---2-2------------------|
G|--------------------7------------------4---4-4--2---2-2------------------|
D|-2------------------7------------------4---4-4--2---2-2------------2-2-2-| x2
A|-2------------------5------------------2---2-2--0---0-0------------2-2-2-|
D|-2-------------------------------------------------------5-9-7-5-7-2-2-2-|

e|-------------------------------------------------------------------------|
B|--------------------7---7-7-7-7-7-7-7--3---3-3--2---2-2------------------|
G|--------------------7---7-7-7-7-7-7-7--4---4-4--2---2-2------------------|
D|-2---2-2-0-2-5-2-0--7---7-7-7-7-7-7-7--4---4-4--2---2-2------------2-2-2-| x2
A|-2---2-2-0-2-5-2-0--5---5-5-5-5-5-5-5--2---2-2--0---0-0------------2-2-2-|
D|-2---2-2-0-2-5-2-0---------------------------------------5-9-7-5-7-2-2-2-|
Добавлено: 25.05.2012
Другие материалы по этой песне:

Страница создана 09.03.2012
http://primanota.ru/billy-talent/turn-your-back-chords.htm
Привет, Гость.
Предлагаем пройти революционный курс по гитаре.
Подарок от PrimaNota.Ru, забирай!