PrimaNota.ru - самый крупный в мире бесплатный архив песенных текстов, аккордов, табулатур и нот


Billy Talent - Try Honesty - аккорды и текст, таба, бас-таба, драм-таба, перевод, видео

Регистрация Запомнить меня
Войти через:  Facebook Google Twitter Vk Yandex Mail.ru

Billy Talent - Try Honesty - аккорды и текст, таба, бас-таба, драм-таба, перевод, видео

Печатать
Просмотров: 960
Авторы: Benjamin Kowalewicz, Jonathan Eric Gallant, Aaron Solowoniuk, Ian D’Sa

Try Honesty
Billy Talent
Intro

|---------------------------------|
|---------------------------------|
|--6-------6--9-9-9-9-9-9-9-9-9-9-|
|-6-6----6----9-9-9-9-9-9-9-9-9-9-|
|4---4--4-4---7-7-7-7-7-7-7-7-7-7-|
|---------------------------------|

Verse

|------------|
|------------|
|--6-------6-|
|-6-6----6---|
|4---4--4-4--|
|------------|

Chorus

|-----------------------------------------|
|-----------------------------------------|
|9-9--9-9-9--9-9--9-9-9--------4--------4-|
|9-9--9-9-9--9-9--9-9-9-4--4-4-4-4--4-4-4-|
|7-7--7-7-7--7-7--7-7-7-4--4-4-2-4--4-4-2-|
|-----------------------2--2-2---2--2-2---|

Interlude

|-------------------------------------------|
|-------------------------------------------|
|--------9^----9-9-------6-6-6----2----4--6-|
|7-7-7-7-9^--7-9-9-------6-6-6---2----4---6-|
|7-7-7-7-7^--7-7-7-------4-4-4--0----2----4-|
|5-5-5-5-----5------------------------------|

|--------------------------------------------------|
|--------------------------------------------------|
|6---2---4---6-------6---6---2---2---4---4---6---6-|
|6---2---4---6------6---6---2---2---4---4---6---6--|
|4---0---2---4-----4---4---0---0---2---2---4---4---|
|--------------------------------------------------|

the interlude is split into 4 different parts

well there ya go, have fun with this song
Добавлено: 31.03.2012
Другие материалы по этой песне:

Страница создана 28.02.2012
http://primanota.ru/billy-talent/try-honesty-chords.htm
Привет, Гость.
Предлагаем пройти революционный курс по гитаре.
Подарок от PrimaNota.Ru, забирай!