PrimaNota.ru - самый крупный в мире бесплатный архив песенных текстов, аккордов, табулатур и нот


Billy Mclaughlin - Fingerdance - таба, видео

Регистрация Запомнить меня
Войти через:  Facebook Google Twitter Vk Yandex Mail.ru

Billy Mclaughlin - Fingerdance - таба, видео

Печатать
Просмотров: 176
Artist:  Billy McLaughlin
Song:    Fingerdance
Album:   Fingerdance
Tunning: DADDAD

All notes on the top 4 strings are played by tapping with the left hand.
All notes on the 2 bass strings are played by tapping with the right hand
or pulling off (with the exception of the first bass note which is kind of
plucked with the right hand).

-0-7P0-9P0--7\5p0--4-5--4p0----------------------------------------|
---------------------------5p0--------7--7p5p0----9--10\9-7\5p0----|
-------------------------------4h5p0------------7------------------|
-------------------------------------------------------------------|
-------------------------------------------------------------------|
-------------------------------------------------------------------|

---7---9----7\5p0--4-5--4p0----------------------------------------|
---------------------------5p0--------7--7-5\4/5-------------------|
-------------------------------4h5p0-------------------------------|
-------------------------------------------------------------------|
-------------------------------------------------------------------|
-------------------------------------------------------------------|

-----5-----5p4\2p0--2p0-----------5p0----5/7p5\4h5p4\2p0-------5p0-|
-4p0---4p0-------------2p0-2/4p0-----4p0-----------------2/4p0-----|
-------------------------------------------------------------------|
-------------------------------------------------------------------|
-------------------------------------------------------------------|
-------------------------------------------------------------------|

-----5p4\2p0-2p0-----------5p0-4\2p0-------------------------------|
-4p0-------------2p0-2/4p0-----------2/5---------------------------|
-------------------------------------------------------------------|
-------------------------------------------------------------------|
-------------------------------------------------------------------|
-------------------------------------------------------------------|

-0-7P0-9P0--7\5p0--4-5--4p0----------------------------------------|
---------------------------5p0--------7--7p5p0----9--10\9-7\5p0----|
-------------------------------4h5p0------------7------------------|
-------------------------------------------------------------------|
-------------------------------------------------------------------|
---0--------4------5-------------2--------------4------------------|

---7---9----7\5p0--4-5--4p0----------------------------------------|
---------------------------5p0--------7--7-5\4/5-------------------|
-------------------------------4h5p0-------------------------------|
-------------------------------------------------------------------|
-------------------------------------------------------------------|
--p0--------4------5-------------2-------7----p0-------------------|

-----5-----5p4 \2p0-2p0-----------5p0----5/7 p5\4h5p4\2p0------5p0-|
-4p0---4p0-------------2p0-2/4p0-----4p0-----------------2/4p0-----|
-------------------------------------------------------------------|
-------------------------------------------------------------------|
-------------------------------------------------------------------|
-5-----------p0------------5---------7-----p0-----4------5---------|

----5p4 \2p0-2p0-----------5p0-4\2p0-------------------------------|
-4p0------------2p0-2/4p0-----------2/5----------------------------|
-------------------------------------------------------------------|
-------------------------------------------------------------------|
-------------------------------------------------------------------|
-7-----9--------------2--------7---p0------------------------------|

------11h12p0-9-11p0-9\7-9p0---------------------------------------|
-(5)p0-----------------------10 \9-7\5-7-9p7\5h7p5 p0h7-7p5p0-7h9--|
-------------------------------------------------------------------|
-------------------------------------------------------------------|
--------------9----------------7-----------------------------------|
------9----------------7---------------5----------4-----2-------7--|

-------------------------------------------------------------------|
-7h9p7 p0h7p0------------------------------------------------------|
-------------------------------------------------------------------|
-------------------------------------------------------------------|
------7------------------------------------------------------------|
-------------------------------------------------------------------|

--11h12p0-9-11p0-9\7-9p0-------------------------------------------|
-------------------------10 \9-7\5-7-9p7\5h7p5 p0-7h9p7\5-7p5p0----|
-------------------------------------------------------------------|
-------------------------------------------------------------------|
----------9----------------7---------------------------------------|
--9----------------7---------------5----------4-----------2--------|

-------------------------------------------------------------------|
-7-9h10p9p7h9p7 p0h7p0---------------------------------------------|
-------------------------------------------------------------------|
-------------------------------------------------------------------|
---------------7---------------------------------------------------|
---7---------------------------------------------------------------|

-----7p0-5\4p0--------4 5p4p0--------------------------------------|
-7p0-----------2 p0h2-------------4p0-5 p4p0-----5p0-7 h9p7\5p0----|
------------------------------4h5------------5h7-------------------|
-------------------------------------------------------------------|
------------------------------------------------------0------------|
-0-------4------5------5--------2------4-------5-----2-------------|

-----7p0-5\4p0--------4 5p4p0--9\6p5p0-7\593p0-5\4p2p0-------------|
-7p0-----------2 p0h2----------------------------------4/7-5--<5>--|
--------------------------------------------------------------<5>--|
--------------------------------------------------------------<5>--|
-------------------------------------------------------------------|
-0-------4------5------5-------2-------4-------5-------7--p0-------|

--11h12p0-9-11p0-9\7-9p0-------------------------------------------|
-------------------------10 \9-7\5-7-9p7\5h7p5 p0-7h9p7\5-7p5p0----|
-------------------------------------------------------------------|
-------------------------------------------------------------------|
----------9----------------7---------------------------------------|
--9----------------7---------------5----------4-----------2--------|

-------------------------------------------------------------------|
-7-9h10p9p7h9p7 p0h7p0---------------------------------------------|
-------------------------------------------------------------------|
-------------------------------------------------------------------|
---------------7---------------------------------------------------|
---7---------------------------------------------------------------|

--11h12p0-9-11p0-9\7-9p0-------------------------------------------|
-------------------------10 \9-7\5-7-9p7\5h7p5 p0-7h9p7\5-7p5p0----|
-------------------------------------------------------------------|
-------------------------------------------------------------------|
----------9----------------7---------------------------------------|
--9----------------7---------------5----------4-----------2--------|

-------------------------------------------------------------------|
-7-9h10p9p7h9p7 p0h7p0---------------------------------------------|
-------------------------------------------------------------------|
-------------------------------------------------------------------|
---------------7---------------------------------------------------|
---7---------------------------------------------------------------|

-----------------------7p0-7p0-9p0-9p0-9/11------------------------|
-9h10p9p7h9p7 h9-11p0----------------------------------------------|
-------------------------------------------------------------------|
-------------------------------------------------------------------|
-------------------------------------------------------------------|
-5-----------6---------7-------6-------5---------------------------|

-----7p0-5\4p0--------4 5p4p0--------------------------------------|
-7p0-----------2 p0h2-------------4p0-5 p4p0-----5p0-7 h9p7\5p0----|
------------------------------4h5------------5h7-------------------|
-------------------------------------------------------------------|
------------------------------------------------------0------------|
-0-------4------5------5--------2------4-------5-----2-------------|

-----7p0-5\4p0--------4 5p4p0--9\6p5p0-7\593p0-5\4p2p0-------------|
-7p0-----------2 p0h2----------------------------------4/7-5--<5>--|
--------------------------------------------------------------<5>--|
--------------------------------------------------------------<5>--|
-------------------------------------------------------------------|
-0-------4------5------5-------2-------4-------5-------7--p0-------|

-0-7P0-9P0--7\5p0--4-5--4p0----------------------------------------|
---------------------------5p0--------7--7p5p0----9--10\9-7\5p0----|
-------------------------------4h5p0------------7------------------|
-------------------------------------------------------------------|
-------------------------------------------------------------------|
-------------------------------------------------------------------|

---7---9----7\5p0--4-5--4p0----------------------------------------|
---------------------------5p0--------7--7-5\4/5-------------------|
-------------------------------4h5p0-------------------------------|
-------------------------------------------------------------------|
-------------------------------------------------------------------|
-------------------------------------------------------------------|

-----5-----5p4 \2p0-2p0-----------5p0----5/7 p5\4h5p4\2p0------5p0-|
-4p0---4p0-------------2p0-2/4p0-----4p0-----------------2/4p0-----|
-------------------------------------------------------------------|
-------------------------------------------------------------------|
-------------------------------------------------------------------|
-5-----------p0------------5---------7-----p0-----4------5---------|

----5p4 \2p0-2p0-----------5p0-4\2p0-------------------------------|
-4p0------------2p0-2/4p0-----------2/5----------------------------|
-------------------------------------------------------------------|
-------------------------------------------------------------------|
-------------------------------------------------------------------|
-7-----9--------------2--------7---p0------------------------------|

--<5>-----|
--<5>-----|
--<5>-----|
--<5>-----|
----------|
----------|

http://www.billymclaughlin.com/
Добавлено: 01.05.2012
Другие материалы по этой песне:
  • Аккорды и текст

Страница создана 01.05.2012
http://primanota.ru/billy-mclaughlin/fingerdance-chords.htm
Привет, Гость.
Предлагаем пройти революционный курс по гитаре.
Подарок от PrimaNota.Ru, забирай!