PrimaNota.ru - самый крупный в мире бесплатный архив песенных текстов, аккордов, табулатур и нот


Billy Joel - Prelude - аккорды и текст, бас-таба, видео

Регистрация Запомнить меня
Войти через:  Facebook Google Twitter Vk Yandex Mail.ru

Billy Joel - Prelude - аккорды и текст, бас-таба, видео

Печатать
Просмотров: 227
Prelude
Billy Joel
Tabbed by: Dave Porter (SuitsJones@juno.com)

||
G-------------|-------------|------------|------------|
D-------------|-------------|---1--3-33--|---0--1-11--|
A-3------3----|-3------3----|3-----------|1-----------|
E-------------|-------------|------------|------------|


G-------------|------------|-7--|-5--|-7--|--5--2-0------|
D-------------|------------|----|----|----|---------2-0--|
A----1--3-33--|---0--1-11--|----|----|----|--------------|
E-3-----------|1-----------|----|----|----|--------------|

|<	         ( 2x )           >|
G----2-0----0--2-0------|----2-0----0---------|
D---------0--------2-0--|---------0----2-0----|
A-3---------------------|-3----------------3--|
E-----------------------|---------------------|


G------------------------|--------------|-------------------
D---0----5-4--0-2------0-|------------0-|--0---5-4--0-2----0
A-2---2------------2-3---|33333-333-2---|2---2----------3-2-
E------------------------|--------------|-------------------

2nd time
G---------|----------|--------------------------------
D---------|----------|---1--3-33----0--1-11-----------
A-3-------|-3-----3--|-3----------1-----------1--3-33-
E------3--|----------|----------------------3---------


G-----------|5---1-2------------|5---1-2---------0-|
D-----------|--------2-3--------|--------2-3-------|
A---0--1-11-|------------3-5----|------------3-5---|
E-1---------|----------------3--|------------------|


G-------------------|-------------------|
D---0---------------|---0---------------|
A-3-----2-3---0-2-3-|-3-----2-3---0-2-3-|
E-------------------|-------------------|
Добавлено: 27.05.2015
Другие материалы по этой песне:
  • Аккорды и текст

Страница создана 26.02.2012
http://primanota.ru/billy-joel/prelude-chords.htm
Привет, Гость.
Предлагаем пройти революционный курс по гитаре.
Подарок от PrimaNota.Ru, забирай!