PrimaNota.ru - самый крупный в мире бесплатный архив песенных текстов, аккордов, табулатур и нот


Billy James Foote - Sing To The King - таба, видео

Регистрация Запомнить меня
Войти через:  Facebook Google Twitter Vk Yandex Mail.ru

Billy James Foote - Sing To The King - таба, видео

Печатать
Просмотров: 70
Уроки эстрадного вокала в Санкт-Петербурге
-------------------------------------------------------------------------------
                         sing to the king - Billy James Foote
-------------------------------------------------------------------------------
Tabbed by:
E-mail:
key of F
Tuning:E-A-D-G-B-e

e|------------------------------------------------------------------------------|
B|------------------------------------------------------------------------------|
G|--------------0-------0--3--3---2---2------------0--0---2----0----0-----------|
D|-3-------3----2-------2--3--3---3---3----3-----3-2--2--------0----0---3----3--|
A|-0----3--0----3---3---3--5--5---3---3----0--3--0-3--3--------1----1---5----3--|
E|------------------------------------------------------------------------------|
  sing to the king who is coming to reign glory to Jesus the lamb that was slain
e|--------------------------------------------------------------------------------------|
B|--------------------------------------------------------------------------------------|
G|-------------0------0---3--3----2-----2----------------------0--0-----2---0--0--------|
D|--3--------3-2------2---3--3----3-----3------3----3------3---2--2---------0--0--3---3-|
A|--0---3----0-3--3---3---5--5----3-----3-----------0---3--0---3--3---------1--1--5---3-|
E|--------------------------------------------------------------------------------------|
  life and salvation His empire shall bring 'cause joy to the nations when Jesus is king
e|---------------------------------------------------------------------------|
B|--------1------------------------1-----------------------------------------|
G|--------2---3--2----3--2---------2----3--3--2---3--2--0---2--0-----3--3--3-|
D|--------3---5--3----5--3--3---3--3----5--5--3---5--3--0---3--0--3--5--5--5-|
A|---------------3-------3--3-----------------3------3--1---3--1--5----------|
E|---------------------------------------------------------------------------|
chorus: come let us sing a song a song declaring we belong to Jesus He is all 
e|---------------------------------------------------------------------------|
B|---------1-------------------------1---------------------------------------|
G|-2---2---2---3--2---3----2---------2----3---2-3--2------0---2---0-----0----|
D|-3---3---3---5--3---5----3----3----3----5---3-5--3------0---3---0-3---0----|
A|-3---3----------3--------3----3-------------3----3------1---3---1-5---1----|
E|---------------------------------------------------------------------------|
  we need lift up a heart of praise sing now we voices raised to Jesus sing 
e|---------------------------------------------------------------------------|
B|---------------------------------------------------------------------------|
G|0--------------------------------------------------------------------------|
D|0---3----3-----------------------------------------------------------------|
A|1---3----3-----------------------------------------------------------------|
E|---------------------------------------------------------------------------|
  to the king 



************************************

| /   slide up
| \   slide down
| h   hammer-on
| p   pull-off
| ~   vibrato
| +   harmonic
| x   Mute note
| b   Bend
| pb  Pre-bend
| br  Bend release
| pbr Pre-bend release
| brb Bend release bend

************************************
Добавлено: 26.06.2016
Другие материалы по этой песне:
  • Аккорды и текст

Страница создана 26.06.2016
http://primanota.ru/billy-james-foote/sing-to-king-chords.htm
Привет, Гость.
Предлагаем пройти революционный курс по гитаре.
Подарок от PrimaNota.Ru, забирай!