PrimaNota.ru - самый крупный в мире бесплатный архив песенных текстов, аккордов, табулатур и нот


Billy J. Kramer & The Dakotas - Trains And Boats And Planes - бас-таба, видео

Регистрация Запомнить меня
Войти через:  Facebook Google Twitter Vk Yandex Mail.ru

Billy J. Kramer & The Dakotas - Trains And Boats And Planes - бас-таба, видео

Печатать
Просмотров: 127
Уроки эстрадного вокала в Санкт-Петербурге
Tabbed by: 6METAL6BASSIST6
E-mail: petergriffinav@gmail.com

Tuning: EADG

G|----------------10----------------------------------10--------------|
D|------------10----------------------------------10------------------|
A|8-------------------------------8-----------------------------------|
E|--------------------------------------------------------------------|

G|----------------10--------------------------------------------------|
D|------------10--------------------------------------8---------------|
A|8-----------------------------------------------8-----------8-------|
E|--------------------------------6-----------------------------------|

G|----------------------------------------------------10--------------|
D|----------------8-------------------------------10------------------|
A|------------8-----------8-------8-----------------------------------|
E|6-------------------------------------------------------------------|

G|----------------10----------------------------------10--------------|
D|------------10----------------------------------10------------------|
A|8-------------------------------8-----------------------------------|
E|--------------------------------------------------------------------|

G|----------------10--------------|
D|------------10------------------|
A|8-------------------------------|
E|--------------------------------|

0:20

G|----------------10----------------------------------10--------------|
D|------------10----------------------------------10------------------|
A|8-------------------------------8-----------------------------------|
E|--------------------------------------------------------------------|

G|----------------10--------------------------------------------------|
D|------------10----------10--------------------------8---------------|
A|8-----------------------------------------------8-------------------|
E|--------------------------------6-----------------------------------|

G|----------------------------------------------------10--------------|
D|----------------8-------------------------------10------------------|
A|------------8-----------8-------8-----------------------------------|
E|6-------------------------------------------------------------------|

G|----------------10----------------------------------7---------------|
D|------------10----------10----------------------7-----------7-------|
A|8-------------------------------5-----------------------------------|
E|--------------------------------------------------------------------|

G|----------------7-----------------------------------7---------------|
D|------------7-----------7-----------------------7-----------7-------|
A|5-------------------------------5-----------------------------------|
E|--------------------------------------------------------------------|

G|----------------7-----------------------------------7---------------|
D|------------7-----------7-----------------------7-------7-----------|
A|5-------------------------------5---------------------------5---7---|
E|--------------------------------------------------------------------|

0:45

G|----------------10----------------------------------10--------------|
D|------------10----------------------------------10------------------|
A|8-------------------------------8-----------------------------------|
E|--------------------------------------------------------------------|

G|----------------10--------------------------------------------------|
D|------------10----------10--------------------------8---------------|
A|8-----------------------------------------------8-------------------|
E|--------------------------------6-----------------------------------|

G|----------------------------------------------------10--------------|
D|----------------8-------------------------------10------------------|
A|------------8-----------8-------8-----------------------------------|
E|6-------------------------------------------------------------------|

G|----------------10----------------------------------7---------------|
D|------------10----------10----------------------7-----------7-------|
A|8-------------------------------5-----------------------------------|
E|--------------------------------------------------------------------|

G|----------------7-----------------------------------7---------------|
D|------------7-----------7-----------------------7-----------7-------|
A|5-------------------------------5-----------------------------------|
E|--------------------------------------------------------------------|

G|----------------7-----------------------------------7---------------|
D|------------7-----------7-----------------------7-----------7-------|
A|5-------------------------------5-----------------------------------|
E|--------------------------------------------------------------------|

1:09

G|----------------7-----------------------------------12--------------|
D|------------7-----------7-----------------------12----------12------| x4
A|5-------------------------------10----------------------------------|
E|--------------------------------------------------------------------|

G|--------------------------------------------------------------------|
D|----------------8-----------------------------------10--------------|
A|------------8-----------8-----------------------10----------10------|
E|6-------------------------------8-----------------------------------|

G|--------------------------------------------------------------------|
D|----------------10----------------------------------10--------------|
A|------------10----------10----------------------10----------10------|
E|8-------------------------------8-----------------------------------|

1:34

G|----------------10----------------------------------10--------------|
D|------------10----------------------------------10------------------|
A|8-------------------------------8-----------------------------------|
E|--------------------------------------------------------------------|

G|----------------10--------------------------------------------------|
D|------------10----------10--------------------------8---------------|
A|8-----------------------------------------------8-------------------|
E|--------------------------------6-----------------------------------|

G|----------------------------------------------------10--------------|
D|----------------8-------------------------------10------------------|
A|------------8-----------8-------8-----------------------------------|
E|6-------------------------------------------------------------------|

G|----------------10----------------------------------7---------------|
D|------------10----------10----------------------7-----------7-------|
A|8-------------------------------5-----------------------------------|
E|--------------------------------------------------------------------|

G|----------------7-----------------------------------7---------------|
D|------------7-----------7-----------------------7-----------7-------|
A|5-------------------------------5-----------------------------------|
E|--------------------------------------------------------------------|

G|----------------7-----------------------------------7---------------|
D|------------7-----------7-----------------------7-------7-----------|
A|5-------------------------------5---------------------------5---7---|
E|--------------------------------------------------------------------|

2:01

G|----------------10----------------------------------10--------------|
D|------------10----------------------------------10------------------|
A|8-------------------------------8-----------------------------------|
E|--------------------------------------------------------------------|

G|----------------10--------------------------------------------------|
D|------------10----------10--------------------------8---------------|
A|8-----------------------------------------------8-------------------|
E|--------------------------------6-----------------------------------|

G|----------------------------------------------------10--------------|
D|----------------8-------------------------------10------------------|
A|------------8-----------8-------8-----------------------------------|
E|6-------------------------------------------------------------------|

G|----------------10----------------------------------7---------------|
D|------------10----------10----------------------7-----------7-------|
A|8-------------------------------5-----------------------------------|
E|--------------------------------------------------------------------|

G|----------------7-----------------------------------7---------------|
D|------------7-----------7-----------------------7-----------7-------| fades out here.
A|5-------------------------------5-----------------------------------|
E|--------------------------------------------------------------------|
Добавлено: 05.04.2016
Другие материалы по этой песне:
  • Аккорды и текст

Страница создана 05.04.2016
http://primanota.ru/billy-j-kramer-and-dakotas/trains-and-boats-and-planes-chords.htm
Привет, Гость.
Предлагаем пройти революционный курс по гитаре.
Подарок от PrimaNota.Ru, забирай!