PrimaNota.ru - самый крупный в мире бесплатный архив песенных текстов, аккордов, табулатур и нот


Billy Idol - Cradle Of Love - аккорды и текст, видео

Регистрация Запомнить меня
Войти через:  Facebook Google Twitter Vk Yandex Mail.ru

Billy Idol - Cradle Of Love - аккорды и текст, видео

Печатать
Просмотров: 291
Уроки эстрадного вокала в Санкт-Петербурге
Авторы музыки: Billy Idol, David Werner
Авторы текста: Billy Idol, David Werner
Cradle Of Love
Billy Idol
-------------------------------------------------------------------------------
                            Cradle of Love
-------------------------------------------------------------------------------
             
ARTIST: Billy Idol      
ALBUM:  Appetite for Destruction
YEAR: 1990

tabbed by : pp1pete

This is chorded to play with album
It becomes easier to add capo - try it out

CAPO: 0
TUNING: standard


---INTRO---                  

       Bb5                                Bb5  Bb5  Bb5
e||---------------------------------------------------------------------------
B||---------------------------------------------11--11------------------------
G||----10--------6---6--6-----------------10----10--10-----8-7----8-7---------
D||-----8------8---8-------8--6--8--8------8-----8---8---------8------8-------
A||---------------------------------------------------------------------------
E||---------------------------------------------------------------------------  x2


---CHORUS 1---
      Bb
 Well rock the cradle of love
 
 Rock the cradle of love
         Gm              F            Gm               F
 Yes the cradle of love    don't rock easily it's true

      Bb
 Well rock the cradle of love

 I rocked the cradle of love
         Gm              F            Gm               F
 Yes the cradle of love    don't rock easily it's true

 Well now


---VERSE 1---
Eb
 It burned like a ball of fire
Eb
 When the rebel took a little child bride
Gm
 To tease yeah, so go easy yeah
Eb
 'Cause love cuts a million ways
Eb
 Shakes the devil when he misbehaves
Gm                     Bb
 I ain't nobody's fool
         Cm
 Come on    shake it up
Ab          C# 
 Whatever I do


---CHORUS 2---

 Bb
 Rock the cradle of love
 Bb
 Rock the cradle of love
         Gm              F            Gm               F
 Yes the cradle of love    don't rock easily it's true
 Bb
 Sent from heaven above that's right
 Bb
 To rob the cradle of love
         Gm              F            Gm               F 
 Yes the pages of love     don't talk decently it's true


---VERSE 2---
Eb
 Yeah flesh for your Romeo
Eb
 Ah yeah baby I hear you moan
Gm
 It's easy, I know how to please me yeah

Eb
 This love starts my rollin' train
Eb
 You can't stop it  It ain't in vain
Gm                     Bb
 I ain't nobody's fool
         Cm
 Come on   shake it up
Ab          
 Whatever I do



---BRIDGE---
[Fminor>Barre8         Ab5>     C5>  ]

Fm  C#                 Ab       Cm
        These are the wages of love
Fm   C#            Ab        C
  I know rock the cradle of love
Fm  C#   F            Ab       Cm
        These are the wages of love
Fm     C#             Ab        Cm
   mm yeah  Rock the cradle
Cm
 Yeah yeah yeah yeah yeah yeah


---INSTRUMENTAL---



Bb  Bb    Gm  F   Bb

Gm  F  Gm   F

---VERSE 3---
Eb
 Well it burned like a ball of fire
Eb
 When the rebel took a little child bride
Gm
 To tease yeah, I know how to please you yeah  owww

Eb
 Well my love starts a rollin' train

Eb
 You can't stop it  It ain't in vain
Gm                     Bb
 I ain't nobody's fool
         Cm
 Come on    shake it up
Ab           F
 Whatever I do


---ENDING---


Gm  F  Gm   F



Bb
 Rock the cradle of love
Bb
 Rock the cradle of love
Bb
 Sent from heaven above
Bb
 That's right
Bb
 To rock the cradle of love

 Rock the cradle of love

 Yeah cradle of love
Eb
 That's me mama
Bb
 I robbed the devil of love,  All right
Bb               Gm
 Cradle of love
Bb
 If you tease me, tonight
         Eb         Bb
 If you sleaze me,  all right
Bb
 If you appease me, tonight
Bb
 And let me ease you, yeah owww
Bb
 Rock the Cradle of love, yeah
C#         Eb    Bb
 Cradle of love, all right
Bb
 Rock the Cradle of love, yeah
C#         Eb    Bb
 Cradle of love, all right


     m6
e||------6-----6-------6------6------------------------------
B||--6------6-----6--4---4------4-3--------------------------
G||--3------------------------------3------------------------
D||----------------------------------------------------------
A||----------------------------------------------------------
E||----------------------------------------------------------

Добавлено: 23.08.2015
Другие материалы по этой песне:

Страница создана 21.05.2012
http://primanota.ru/billy-idol/cradle-of-love-chords.htm
Привет, Гость.
Предлагаем пройти революционный курс по гитаре.
Подарок от PrimaNota.Ru, забирай!