PrimaNota.ru - самый крупный в мире бесплатный архив песенных текстов, аккордов, табулатур и нот


Billy Boy On Poison - On My Way - таба, бас-таба, видео

Регистрация Запомнить меня
Войти через:  Facebook Google Twitter Vk Yandex Mail.ru

Billy Boy On Poison - On My Way - таба, бас-таба, видео

Печатать
Просмотров: 242
----------------------------------------------------------------------------
                             On My Way - Billy Boy On Poison
----------------------------------------------------------------------------
                           www.billyboyonpoison.com   


Tabbed by: Bassface01
Email: guneagleluke@charter.net

Tuning: Standard (eBGDAE)

Verse:
Guitar 1:
e|------------------------------------------------------------------|
B|------------------------------------------------------------------|
G|------------------------------------------------------------------|
D|7757xxxxxxxxxxxxxxxx7757xxxxxxxxxxxxxxxx7757xxxxxxxxxxxxxxxx7757--|
A|7757xxxxxxxxxxxxxxxx7757xxxxxxxxxxxxxxxx7757xxxxxxxxxxxxxxxx7757--|
E|5535xxxxxxxxxxxxxxxx5535xxxxxxxxxxxxxxxx5535xxxxxxxxxxxxxxxx5535--|

e|-----------33--33---|
B|-----------33--33---|
G|-----------44--44---|
D|xxxxxxxxxxx55xx55---|
A|xxxxxxxxxxx55xx55---|
E|xxxxxxxxxxx33xx33---|

Guitar 2:
e|-------------------------------------------|
B|-------------------------------------------|
G|9--7-------------------7----9--7-----------|
D|-----10-7-----7--7--10-----------10-7--7---|
A|----------10-------------------------------|
E|-------------------------------------------|

e|------------------------------------------------|
B|------------------------------------------------|
G|9--7-------------------7----9--7-------11b(12)--|
D|-----10-7-----7--7--10-----------10-7-----------|
A|----------10------------------------------------|
E|------------------------------------------------|

Chorus:
e|----------------------------------------------------------------|
B|----------------------------------------------------------------|
G|2-2-5-5---------2-2-5-5---------2-2-5-5---------3-3-3-3---------|
D|2-2-5-5-3-3-2-2-2-2-5-5-3-3-2-2-2-2-5-5-3-3-2-2-3-3-3-3-2-2-2-2-|
A|0-0-3-3-3-3-2-2-0-0-3-3-3-3-2-2-0-0-3-3-3-3-2-2-1-1-1-1-2-2-2-2-|
E|--------1-1-0-0---------1-1-0-0---------1-1-0-0---------0-0-0-0-|

Solo:
This is a slide solo
e|-------------------------------------------|
B|-------------------------------------------|
G|9--7-------------------7----9--7-----------|
D|-----10-7-----7--7--10-----------10-7--7---|
A|----------10-------------------------------|
E|-------------------------------------------|

e|------------------------------------------------|
B|------------------------------------------------|
G|9--7-------------------7----9--7-------11b(12)--|
D|-----10-7-----7--7--10-----------10-7-----------|
A|----------10------------------------------------|
E|------------------------------------------------|
                                      Slide 
e|-----------8--8-7-------------10--10-12-------------8--8-7--|
B|----10-10--------------10-10---------12------10-10----------|
G|-/9-----------------/9--------------------/9----------------|
D|------------------------------------------------------------|
A|------------------------------------------------------------|
E|------------------------------------------------------------|
 Slide     Slide
e|15--------17---------17----17-----|
B|15--------17------17----17--------|
G|----------------------------------|
D|----------------------------------|
A|----------------------------------|
E|----------------------------------|

Guitar 1 plays regular verse and chorus.

End on...
e|--------|
B|--------|
G|--------|
D|-7757---|
A|-7757---|
E|-5535---|





| /  slide up
| \  slide down
| h  hammer-on
| p  pull-off
| ~  vibrato
| +  harmonic
| x  Mute note
============================================================================
Добавлено: 19.07.2012
Другие материалы по этой песне:
  • Аккорды и текст

Страница создана 17.03.2012
http://primanota.ru/billy-boy-on-poison/on-my-way-chords.htm
Привет, Гость.
Предлагаем пройти революционный курс по гитаре.
Подарок от PrimaNota.Ru, забирай!