PrimaNota.ru - самый крупный в мире бесплатный архив песенных текстов, аккордов, табулатур и нот


Billy Bauer - Its A Blue World - таба, видео

Регистрация Запомнить меня
Войти через:  Facebook Google Twitter Vk Yandex Mail.ru

Billy Bauer - Its A Blue World - таба, видео

Печатать
Просмотров: 90
                                  ~~~~~~~~~~~~~~~~~~~~~~~~~~~~~~~~~~~~~~~~
                                               It's A Blue World
                                                  Billy Bauer                
                                                  Plectrist                                                  
                                  ~~~~~~~~~~~~~~~~~~~~~~~~~~~~~~~~~~~~~~~~
Tabbed by: Connor O.
Tuning: Standard



Comment or message any ideas or corrections. Please rate my tab. If you've got
problems with the tab, I'd encourage you to contact me with those problems so I
can fix the tab or provide advice for playing. Don't just give me a poor rating
and not give me any feedback. The idea is for us all to work together to create
a perfect finished product. This tab just represents the best I can do. It's 
definitely up for peer review.



Key:
where # represents a fret number

#h# - hammer
#p# - pull
/ \ - slides, up and down respectively.
 ~  - extend. play a hammer or pull-off over a longer time period
 *  - beat progression.
 !  - symbol reduction (0=10, 2=12, 4b6=14b16...etc)



Intro:



e|-------------------------7-----------------------7-----------|
B|-4-----------5-----------8-----------------------8-----------|
G|-4-----------5-----------9-----------------------9-----------|
D|-4-----------6-----------10----------------------10----------|
A|-2-----------------------------------------------------------|
E|-------------------------------------------------------------|
   *   ^   ^   *   ^   ^   *   ^   ^   *   ^   ^   *   ^   ^    



e|-------------------------------------6-----------------------|
B|-------------------------------------7-----------------------|
G|-------------------------------------8-----------------------|
D|-------------------------------------10----------------------|
A|-------------------------------------------------------------|
E|-------------------------------------------------------------|
   *   ^   ^   *   ^   ^   *   ^   ^   *   ^   ^   *   ^   ^  



e|-5---------------5-------2---------------2-------------------|
B|-7---------------7-------3---------------3-------3-----------|
G|-7---------------7-------4---------------4-------4-----------|
D|-9---------------9-------------------------------------------|
A|-------------------------------------------------------------|
E|-------------------------------------------------------------|
   *   ^   ^   *   ^   ^   *   ^   ^   *   ^   ^   *   ^   ^  


                                       !       !       !
e|-------------2-----------3-----------2-------2-------2-------|
B|-------------3-----------2-----------3-------3-------3-------|
G|-------------3-----------2-----------4-------4-------4-------|
D|---------2---2-----------1-----------5-------5-------5-------|
A|-------------------------------------------------------------|
E|-------------------------------------------------------------|
   *   ^   ^   *   ^   ^   *   ^   ^   *   ^   ^   *   ^   ^    


   !                                               !
e|-2-----------------------------------------------1-----------|
B|-3-----------------------------------------------2-----------|
G|-4-----------------------------------------------3-----------|
D|-5-----------------------------------------------5-----------|
A|-------------------------------------------------------------|
E|-------------------------------------------------------------|
   *   ^   ^   *   ^   ^   *   ^   ^   *   ^   ^   *   ^   ^   

 
               !       !   !       !   !                   !
e|-------------0-----------------------------------------------|
B|-------------1-------1~~/2-----------2-----------------------|
G|-------------2-------1~~/2-------2---2-----------------------|
D|-------------4-------------------4---------------------------|
A|---------------------------------------------------------0---|
E|-------------------------------------------------------------|
   *   ^   ^   *   ^   ^   *   ^   ^   *   ^   ^   *   ^   ^  


           !   !                   !
e|-----------------------------------------7---8---10------10--|
B|-------------------------8-------0---------------8-----------|
G|-9-----------0-----------9-----------------------9-----------|
D|-10----------2-----------------------------------9-----------|
A|---------0---------------------------------------------------|
E|-------------------------------------------------------------|
   *   ^   ^   *   ^   ^   *   ^   ^   *   ^   ^   *   ^   ^    


    
e|-8-------10--------------------------10------10--8-------10--|
B|-8-------8---------------------------8-----------8-------8---|
G|-9-------9---------------------------8-----------8-------8---|
D|-9-------9---------------------------8-----------8-------8---|
A|-------------------------------------------------------------|
E|-------------------------------------------------------------|
   *   ^   ^   *   ^   ^   *   ^   ^   *   ^   ^   *   ^   ^  



e|-------------8-----------7-----------------------2-----------|
B|-------------8-----------7-----------------------3-----------|
G|-------------8-----------7-----------------------3-----------|
D|-------------7-----------5-----------------------2-----------|
A|-------------------------------------------------------------|
E|-------------------------------------------------------------|
   *   ^   ^   *   ^   ^   *   ^   ^   *   ^   ^   *   ^   ^  



e|-------------0---------------------------------------3---5---|
B|---------3---3-----------------------2-----3-----5-----------|
G|-------------4-----------------------3-----4-----------------|
D|-------------0-----------------------4-----5-----------------|
A|-------------------------------------------------------------|
E|-------------------------------------------------------------|
   *   ^   ^   *   ^   ^   *   ^   ^   *   ^   ^   *   ^   ^  



e|-6-------6---5-------5---6-------6---5-------5---6-----------|
B|-6-------6---5-------5---6-------6---5-------5---6-----------|
G|-6-------6---5-------5---6-------6---5-------5---6-----------|
D|-5-----------------------------------------------------------|
A|-------------------------------------------------------------|
E|-------------------------------------------------------------|
   *   ^   ^   *   ^   ^   *   ^   ^   *   ^   ^   *   ^   ^  



e|-5-------6---8-------8---6-----------5-----------3-------0---|
B|-5-------6---6-------6---6-----------5-----------5-----------|
G|-5-------6---6-------6---6-----------5-----------5-----------|
D|-------------------------------------7-----------7-----------|
A|-------------------------------------------------------------|
E|-------------------------------------------------------------|
   *   ^   ^   *   ^   ^   *   ^   ^   *   ^   ^   *   ^   ^  



e|-------------3-------7---5-----------------------------------|
B|-5-------5---------------5-----------------------4-----------|
G|-5-----------------------5-----------------------4-----------|
D|-7-----------------------4-----------------------4-----------|
A|-------------------------5-------------------2---------------|
E|-------------------------------------------------------------|
   *   ^   ^   *   ^   ^   *   ^   ^   *   ^   ^   *   ^   ^  



e|-------------6~~~/~7-----------------7-----------------------|
B|-5-----------7~~~/~8-----------------8-----------------------|
G|-5-----------8~~~/~9-----------------9-----------------------|
D|-6-------------------------------------------------------10--|
A|-------------------------------------------------------------|
E|-------------------------------------------------------------|
   *   ^   ^   *   ^   ^   *   ^   ^   *   ^   ^   *   ^   ^   



e|-7-----------7-----------6-----------6-----------5-------5---|
B|-8-------8---8-------7---7-------7---7-------7---7-------7---|
G|-9-------9---9-------8---8-------8---8-------8---7-------7---|
D|---------10----------10----------10----------10--9-------9---|
A|-------------------------------------------------------------|
E|-------------------------------------------------------------|
   *   ^   ^   *   ^   ^   *   ^   ^   *   ^   ^   *   ^   ^  



e|-----5-------5-------2---2-------5---0-----------------------|
B|-----7-------7-------3---3-------3---3-------------------0---|
G|-----7-------7-------4---4-------4---4-----------------------|
D|-----9-------9-----------------------2-----------------------|
A|-------------------------------------------------------------|
E|-------------------------------------------------------------|
   *   ^   ^   *   ^   ^   *   ^   ^   *   ^   ^   *   ^   ^  


                           ! !                 !   !
e|-2-----------3-----------1/2---------------------2-----------|
B|-3-----------2-----------2/3-----------------3---3-----------|
G|-3-----------2-----------3/4-----------------4---------------|
D|-2-----------1-----------------------------------------------|
A|-------------------------------------------------------------|
E|-------------------------------------------------------------|
   *   ^   ^   *   ^   ^   *   ^   ^   *   ^   ^   *   ^   ^  



e|-------------2-------------------2---1-----------------------|
B|-------------3-----------------------2---------------2---3---|
G|-------------4-------4---------------3-----------------------|
D|-------------------------------------------------------------|
A|-------------5-----------------------4-----------------------|
E|-------------------------------------------------------------|
   *   ^   ^   *   ^   ^   *   ^   ^   *   ^   ^   *   ^   ^  



e|-0-------0---0-----------0-----------------------------------|
B|-2-----------2-------3---2-------3---------------------------|
G|-2-----------2-----------2-----------2-------0---9-----------|
D|-4-----------------------------------4-------2---0-----------|
A|-------------4-----------4-----------------------------------|
E|-------------------------------------------------------------|
   *   ^   ^   *   ^   ^   *   ^   ^   *   ^   ^   *   ^   ^   



e|-------------------------------------10------10--8-------10--|
B|-------------------------1-------2---8-----------8-------8---|
G|-0-----------2-------4---1-----------9-----------9-------9---|
D|-2-----------4-----------------------9-----------9-------9---|
A|-------------------------------------------------------------|
E|-------------------------------------------------------------|
   *   ^   ^   *   ^   ^   *   ^   ^   *   ^   ^   *   ^   ^  



e|-----------------------------5-------1-----------10------8---|
B|-------------------------3-----------1-----------10----------|
G|---------------------4---------------2-----------8-----------|
D|-----------------3-------------------0-----------7-----------|
A|-------------------------------------------------------------|
E|-------------------------------------------------------------|
   *   ^   ^   *   ^   ^   *   ^   ^   *   ^   ^   *   ^   ^  



e|-------------7-------------------2---5-------3---------------|
B|-8-------10--7-------------------3---3-----------3-------5---|
G|-------------7-------------------3---4-----------------------|
D|-------------5-------------------2---------------------------|
A|-------------------------------------------------------------|
E|-------------------------------------------------------------|
   *   ^   ^   *   ^   ^   *   ^   ^   *   ^   ^   *   ^   ^  



e|-3-------2---1-------3---0-----------------------7-------7---|
B|-3-----------------------3-----------------------8-------8---|
G|-2-----------------------1---------------8---9---9-------9---|
D|-0-----------------------0-----------------------10------10--|
A|-------------------------------------------------------------|
E|-------------------------------------------------------------|
   *   ^   ^   *   ^   ^   *   ^   ^   *   ^   ^   *   ^   ^



e|-7-------7---7-----------------------7-----------7-----------|
B|-8-------8---8-----------8-----------7-----------7-----------|
G|-9-------9---9-----------------------8-----------8-----------|
D|-10------10--10----------------------10----------10----------|
A|-------------------------------------------------------------|
E|-------------------------------------------------------------|
   *   ^   ^   *   ^   ^   *   ^   ^   *   ^   ^   *   ^   ^   



e|-------------------------5-------4---3-------0---------------|
B|---------------------3---3-------3---3-------2---------------|
G|-------------------------4-------4---4-------3---------------|
D|-------------------------------------------------------------|
A|-------------------------------------------------------------|
E|-------------------------------------------------------------|
   *   ^   ^   *   ^   ^   *   ^   ^   *   ^   ^   *   ^   ^  



e|---------4---3-------0-----------0---------------------------|
B|---------2---1-------1---1-----------4-----------3-----------|
G|---------3---2-------2-----------2---4-----------3-----------|
D|-------------------------------------4-----------3-----------|
A|-------------------------------------2-----------1-----------|
E|-------------------------------------------------------------|
   *   ^   ^   *   ^   ^   *   ^   ^   *   ^   ^   *   ^   ^  



e|---------0---3-------7-----------7---7-----------7-------8---|
B|-1-------1---1-------5-----------5---5-----------5-------5---|
G|-------------2-------5-----------5---5-----------5-------5---|
D|-2-------2---0-------5-----------5-----------------------5---|
A|-------------------------------------5-----------5-----------|
E|-------------------------------------------------------------|
   *   ^   ^   *   ^   ^   *   ^   ^   *   ^   ^   *   ^   ^  



e|-7-------7---------------6-----------5-------7~\~5-------5---|
B|-5-------4---------------4-----------3-------3---3-------3---|
G|-5-------5---------------5-----------4-------4---4-------4---|
D|---------4---------------4-----------------------------------|
A|-5-----------------------------------------------------------|
E|-------------------------------------------------------------|
   *   ^   ^   *   ^   ^   *   ^   ^   *   ^   ^   *   ^   ^



e|-------------3-----------------------------------2-----------|
B|-------------3-------3---------------------------3-----------|
G|-------------4-------4---------------------------3-----------|
D|-------------------------------------------------2-----------|
A|-------------------------------------------------------------|
E|-------------------------------------------------------------|
   *   ^   ^   *   ^   ^   *   ^   ^   *   ^   ^   *   ^   ^   


                                       !           !
e|-3-----------------------5---8---11--2-----------0-----------|
B|-2-----------2---3---5-6---------9---0-----------0-----------|
G|-2-----------2---2-------7---7---9---0-----------0-----------|
D|-1-----------3---3-------------------------------------------|
A|-------------------------------------------------------------|
E|-------------------------------------------------------------|
   *   ^   ^   *   ^   ^   *   ^   ^   *   ^   ^   *   ^   ^  


               !
e|-------------2-------11----------------------7---10------10--|
B|-------------0-------9-----------------------5---8-------8---|
G|-------------0-------10----------------------5---9-------9---|
D|---------------------------------------------5---9-------9---|
A|-------------------------------------------------------------|
E|-------------------------------------------------------------|
   *   ^   ^   *   ^   ^   *   ^   ^   *   ^   ^   *   ^   ^  


                   !
e|-10--10--8---10--5-------10------8---7-------5---3-----------|
B|-8---8---8---8-----------8-------8---8-------5---3-------3---|
G|-9---9---9---9---4-------9-------9---9-------5-----------2---|
D|-9---9---9---9-----------------------------------------------|
A|-------------------------------------------------------------|
E|-------------------------------------------------------------|
   *   ^   ^   *   ^   ^   *   ^   ^   *   ^   ^   *   ^   ^  



e|-0-----------------------------------10------9---8-----------|
B|-0-----------6-------6---10------8---8-------8---8-------8---|
G|---------2---5-------4---9-------9---9-------9---9-----------|
D|-------------------------10------10--------------------------|
A|-------------------------------------------------------------|
E|-------------------------------------------------------------|
   *   ^   ^   *   ^   ^   *   ^   ^   *   ^   ^   *   ^   ^


           !           !   !       !
e|---------3-----------3---1-------3---10------8---------------|
B|-10----------------------------------8-------8---8-------10--|
G|---------2-----------2---2-------2---8-------8---------------|
D|---------0-----------0---0-------0---7-------7---7-------7---|
A|-------------------------------------------------------------|
E|-------------------------------------------------------------|
   *   ^   ^   *   ^   ^   *   ^   ^   *   ^   ^   *   ^   ^   



e|-7-------------------2---------------------------------------|
B|-7-----------7-------3---------------3-----------------------|
G|-7-----------7-------3---------------3-------4---------------|
D|-5-----------5-------2---------------2-----------------------|
A|-------------------------------------------------------------|
E|-------------------------------------------------------------|
   *   ^   ^   *   ^   ^   *   ^   ^   *   ^   ^   *   ^   ^  



e|-------------------------------------6-----------6-----------|
B|-----2---3---5-2-3---5---2---3---5---6---9-9-----6---6-------|
G|-----3---4---4-3-4---4---3---4---4---6---6-6---------6-------|
D|-----4---5---5-4-5---5---4---5---5---------------8---8-------|
A|-------------------------------------------------------------|
E|-------------------------------------------------------------|
   *   ^   ^   *   ^   ^   *   ^   ^   *   ^   ^   *   ^   ^  



e|-------------8-----11----8---8-------------------8-----7-----|
B|-----6---9---6-----9-----6---6-----------5---6---6-----6-----|
G|-6---6---6---6-----10----6---6-----------5---6---6-----6-----|
D|-------------6-----8-----6---6-----------5---6---------------|
A|-8-----------------------------------------------------------|
E|-------------------------------------------------------------|
   *   ^   ^   *   ^   ^   *   ^   ^   *   ^   ^   *   ^   ^  



e|-6-----------10----7-5---7---5-------3---0-------------------|
B|-6-----------8-----5-5---5---5-------1---1---1-------0---1---|
G|-6-----------9-----5-5---5---5-------2---2---2-------2---2---|
D|-------------7---------------------------------------2---2---|
A|-------------------------------------------------0-----------|
E|-------------------------------------------------------------|
   *   ^   ^   *   ^   ^   *   ^   ^   *   ^   ^   *   ^   ^



e|-0---3---7---5---7---5-----------------------------------7---|
B|-1---1---5---5---5---5---5-------3---4---5---6---8-------8---|
G|-2---2---5---5---5---5---0-----------4---5---------------9---|
D|-------------------------5-------3---5---6-----------10------|
A|-------------------------------------------------------------|
E|-------------------------------------------------------------|
   *   ^   ^   *   ^   ^   *   ^   ^   *   ^   ^   *   ^   ^   


                                       !       !
e|-10------8---7-----------7-------10--3-------1---10--8---6---|
B|-8-----------8-------8---8-------8---1-------1---7---7---7---|
G|-9-------9---9-------9---9-------9---1-------1---8---8-------|
D|---------------------10--10----------------------------------|
A|-------------------------------------------------------------|
E|-------------------------------------------------------------|
   *   ^   ^   *   ^   ^   *   ^   ^   *   ^   ^   *   ^   ^  



e|-----6---8---6---8---6-8-0---7---2---5---3-------2-----------|
B|-7---7---7---7---7---7-7-0---7---------------3---3-------3---|
G|-8---8---8---8---8---8-8---------4---7---4-------3-------3---|
D|---------------------------------------------4-----------2---|
A|-------------------------------------------------------------|
E|-------------------------------------------------------------|
   *   ^   ^   *   ^   ^   *   ^   ^   *   ^   ^   *   ^   ^  



e|-2-----------2-1---0-----------5--4--3-----------------------|
B|-3-------3---0-0---0---4-3-----3--3--3-3---------2-----3-----|
G|-3-------3---0-0---0---0-0-----4--4--4-4---------3-----4-----|
D|---------2-----------------------------5---------4-----5-----|
A|-------------------------------------------------------------|
E|-------------------------------------------------------------|
   *   ^   ^   *   ^   ^   *   ^   ^   *   ^   ^   *   ^   ^  


     !         ! !     !   !   ! !     !     !     !
e|---2---------------------------------------------2-----------|
B|---0---------3-0---------0---3p0-----3-----0-----0-----------|
G|---0---------0-0-----0---0---0-0-----0-----0-----0-----------|
D|---0---------2-2-----2---2---2-2-----2-----2-----0-----------|
A|-------------------------------------------------------------|
E|-------------------------------------------------------------|
   *   ^   ^   *   ^   ^   *   ^   ^   *   ^   ^   *   ^   ^



e|-------2-----11--------------7---8---10--9---8---7-----------|
B|-0-----0-----9-----------------------8-------8---------------|
G|-0-----0-----10----------------------9-------9---------------|
D|-0-----0-----9-----------------------------------------------|
A|-------------------------------------------------------------|
E|-------------------------------------------------------------|
   *   ^   ^   *   ^   ^   *   ^   ^   *   ^   ^   *   ^   ^   



e|-7---6---6---5-------------0---------------------2-----2/3---|
B|-5---5---5---5-----------0-----------6-----------4-----4/5---|
G|-5---5---5---5-----------------2-----5-----4-----4-----4/5---|
D|-------------------------------------------------------------|
A|-----------------------3-------------------------------------|
E|-------------------------------------------------------------|
   *   ^   ^   *   ^   ^   *   ^   ^   *   ^   ^   *   ^   ^  



e|-5-----7-----10------10--10----------10------9---8-------10--|
B|-5-----5-----8-------8---8-----------8-------8---8-------8---|
G|-5-----5-----9-------9---9-----------9-------9---9-------9---|
D|-------------------------------------------------------------|
A|-------------------------------------------------------------|
E|-------------------------------------------------------------|
   *   ^   ^   *   ^   ^   *   ^   ^   *   ^   ^   *   ^   ^  


   !       !   !
e|-5-------3---1-------10--------------8-------10--7-----------|
B|-3-------1---1-------8---------------8-------8---7-----------|
G|-4-------2---2-------8---------------8-------8---7-----------|
D|-3-------0---0-------7---------------7-------7---5-----------|
A|-------------------------------------------------------------|
E|-------------------------------------------------------------|
   *   ^   ^   *   ^   ^   *   ^   ^   *   ^   ^   *   ^   ^  


                                       ! !     !
e|---------------------3---------5---8-3-------2---6-------7---|
B|-2-------3---5-------3---5---6-6---6-1/2-----2---9-------9---|
G|-3-------4---4-------4---4---5-------2/3---------7-------7---|
D|-4-------5---5-----------5-----------1/2---------------------|
A|-------------------------------------------------------------|
E|-------------------------------------------------------------|
   *   ^   ^   *   ^   ^   *   ^   ^   *   ^   ^   *   ^   ^

 
             !
e|-10------9/0-10------9---8-------10--7-----------------------|
B|-8-----------8-------9---8-------8---8-------8---------------|
G|-9-----------9-------10--9-------9---9-------9---------------|
D|---------------------------------------------10--------------|
A|-------------------------------------------------------------|
E|-------------------------------------------------------------|
   *   ^   ^   *   ^   ^   *   ^   ^   *   ^   ^   *   ^   ^   



e|-------------10------8---7-------8---7-------------------2---|
B|-------------8-----------------------7-----------------------|
G|-8-------9---9-----------------------8-----------------------|
D|-7-----------7-----------------------10----------------------|
A|-------------------------------------------------------------|
E|-------------------------------------------------------------|
   *   ^   ^   *   ^   ^   *   ^   ^   *   ^   ^   *   ^   ^  



e|-3-----------------------3-----------------------3-----------|
B|-3-----------3-----------3-----------2-----------1-----------|
G|-4-----------------------2-----------------------1-----------|
D|-5-----------------------1-----------------------1-----------|
A|-------------------------------------------------------------|
E|-------------------------------------------------4-----------|
   *   ^   ^   *   ^   ^   *   ^   ^   *   ^   ^   *   ^   ^  



e|-2-----------1-----------1-----------1-----------------------|
B|-------------1-----------0-----------------------5-----------|
G|-------------1-----------------------3-----------------------|
D|-------------3-----------------------4-----------------------|
A|-------------4-----------------------4-----------------------|
E|-------------------------------------2-----------------------|
   *   ^   ^   *   ^   ^   *   ^   ^   *   ^   ^   *   ^   ^  



e|-------------------------------------5-----------------------|
B|-4-----------------------------------5-----------5-------3---|
G|-4-----------2-----------2-----------2-------------------2---|
D|-4-----------------------3-----------------------7-----------|
A|-2-----------------------3-----------------------8-----------|
E|-------------------------1-----------------------8-----------|
   *   ^   ^   *   ^   ^   *   ^   ^   *   ^   ^   *   ^   ^
Добавлено: 25.12.2015
Другие материалы по этой песне:
  • Аккорды и текст

Страница создана 25.12.2015
http://primanota.ru/billy-bauer/its-a-blue-world-chords.htm
Привет, Гость.
Предлагаем пройти революционный курс по гитаре.
Подарок от PrimaNota.Ru, забирай!