PrimaNota.ru - самый крупный в мире бесплатный архив песенных текстов, аккордов, табулатур и нот


Billie Joe Norah Jones - Long Time Gone - аккорды и текст, видео

Регистрация Запомнить меня
Войти через:  Facebook Google Twitter Vk Yandex Mail.ru

Billie Joe Norah Jones - Long Time Gone - аккорды и текст, видео

Печатать
Просмотров: 102
Long Time Gone
Billie Joe Norah Jones
-------------------------------------------------------------------------------
                             Long Time Gone
-------------------------------------------------------------------------------
Tabbed by: Vishal Valhellan Arya
E-mail:vishal.arya0603@gmail.com

Tuning:standard
Intro:
e|---------------------------------------------------------------------------|
B|---------------------------------------------------------------------------|
G|---------------------------------------------------------------------------|
D|---------------------------------------------------------------------------|
A|---------------------------------------------------------------------------|
E|--0h2~-0h2~-2p3r0----------------------------------------------------------|



            E
You cheated me

And made me lonely

I tried to be
          B7
Your very own

              A
There be a day
               E
You'll want me only
           B7
But when I leave
                    E
I'll be a long time gone

               A
Be a long time gone
               E
Be a long time gone
            B7
Yes, when I leave
                    E
I'll be a long time gone

                E
You're gonna be sad

You're gonna be weepin

You're gonna be blue
        B7
And all alone

                  A
You'll regret the day
            E
You seen me leavin
              B7
'Cause when I leave
                    E
I'll be a long time gone

               A
Be a long time gone
               E
Be a long time gone
            B7
Yes, when I leave
                    E
I'll be a long time gone

              E
You'll see my face

Through tears and sorrow

You'll miss the love
                B7
You called your own

               A
Baby, there be
      E
No tomorrow
              B7
'Cause when I leave
                    E
I'll be a long time gone

               A
Be a long time gone
               E
Be a long time gone
            B7
Yes, when I leave
                    E
I'll be a long time gone

interlude or solo

    E maj
e|---------------------------------------------------------------------------|
B|--------00000--------------------0-----------------------------------------|
G|------1------11111--------------1-1----------------------------------------|
D|----2-------------22222---2-2-2----2---------------------------------------|
A|--2--------------------2~2-2-2---------------------------------------------|
E|---------------------------------------------------------------------------|
    B7                    A maj
e|-----2------------|-------------------0------------------------------------|
B|------0-----------|--------2^r-2-2-33--------------------------------------|
G|---2---2----------|------2-2^r-2-------------------------------------------|
D|--1-----1-1-------|----2---------------------------------------------------|
A|-2-------2--------|--0-----------------------------------------------------|
E|------------------|--------------------------------------------------------|

e|---------------------------------------------------------------------------|
B|---------------------------------------------------------------------------|
G|---------------------------------------------------------------------------|
D|---------------------------------------------------------------------------|
A|---------------------------------------------------------------------------|
E|--0h2~-0h2~-2p3r0----------------------------------------------------------|

 A
Be a long time gone
               E
Be a long time gone
            B7
Yes, when I leave
                    E
I'll be a long time gone



OR U CAN USE BARRED CHORDS FOR ORIGINAL BJA & NORAH'S VERSION I GOT THESE CHORDS FOR EVERLY
BROTHERS VIDEO FOR ORIGINAL FEEL JUST FEEL THE SONG AND PLAY HOW YOU FEEL....
U R A GREAT GUITARIST

************************************

| /   slide up
| \   slide down
| h   hammer-on
| p   pull-off
| ~   vibrato

************************************
Добавлено: 25.06.2015
Другие материалы по этой песне:
  • Аккорды и текст

Страница создана 25.06.2015
http://primanota.ru/billie-joe-norah-jones/long-time-gone-chords.htm
Привет, Гость.
Предлагаем пройти революционный курс по гитаре.
Подарок от PrimaNota.Ru, забирай!