PrimaNota.ru - самый крупный в мире бесплатный архив песенных текстов, аккордов, табулатур и нот


Bill Withers - Sweet Wanomi - таба, видео

Регистрация Запомнить меня
Войти через:  Facebook Google Twitter Vk Yandex Mail.ru

Bill Withers - Sweet Wanomi - таба, видео

Печатать
Просмотров: 126
Авторы музыки: Bill Withers
Авторы текста: Bill Withers
-------------------------------------------------------------------------------
                             SWEET WANOMI - Bill Withers
-------------------------------------------------------------------------------
Tabbed by: e_b
E-mail:

Tuning: standard

A beautiful song with a sweet, simple melody - just play each chord to the rhythm & you'll be set
...enjoy!

It's just E7, A7, D7 sliding back to E7

   E7              A7  D7 E7          E7                   A7   D7 E7
e|---------------------------------------------------------------------------|
B|--9-------------------7/9------------9-------------------------7/9---------|
G|--7---------------6---5/7------------7--------------------6----5/7---------|
D|--9---------------5---7/9------------9--------------------5----7/9---------|
A|--7---------------7---5/7------------7--------------------7----5/7---------|
E|------------------5---------------------------------------5----------------|     
     In a room with soft satin pillows, Cracklin' fireplace keeps us warm

   E7                     A7      D7 E7         
e|---------------------------------------------------------------------------|
B|--9------------------------------7/9---------------------------------------|
G|--7----------------------6-------5/7---------------------------------------|
D|--9----------------------5-------7/9---------------------------------------|
A|--7----------------------7-------5/7---------------------------------------|
E|-------------------------5-------------------------------------------------|
     Whisprin' wind through weepin' willows, 

   E7                       A7  D7 E7    E7              A7  D7 E7
e|---------------------------------------------------------------------------|
B|--9----------------------------7/9------9-------------------7/9------------|
G|--7------------------------6---5/7------7---------------6---5/7------------|
D|--9------------------------5---7/9------9---------------5---7/9------------|
A|--7------------------------7---5/7------7---------------7---5/7------------|
E|---------------------------5----------------------------5------------------|
     And sweet Wanomi restin' in my arms



Keys solo (also played over the riff in the last measures of the song):

e|---------------------------------------------------------------------------|
B|--9--9-9--9-9--9-9--10-9------------9-9---------------------9--------------|
G|-------------------------11-11--9-------11-9-9---------9h11----------------|
D|-----------------------------------------------11-9h11---------------------|
A|---------------------------------------------------------------------------|
E|---------------------------------------------------------------------------|

e|-------------------------------------------------------------------------------------------|
B|--9--9-9--9-9--9-9--10-9------------9-9-------------------------9-9------------------------|
G|-------------------------11-11--9-------11-9-9---------9h11p9-------11-9-9---------9h11p9--|
D|-----------------------------------------------11-9h11---------------------11-9h11---------|
A|-------------------------------------------------------------------------------------------|
E|-------------------------------------------------------------------------------------------|


************************************

| /   slide up
| \   slide down
| h   hammer-on
| p   pull-off
| ~   vibrato
| +   harmonic
| x   Mute note
| b   Bend
| pb  Pre-bend
| br  Bend release
| pbr Pre-bend release
| brb Bend release bend

************************************
Добавлено: 20.09.2015
Другие материалы по этой песне:
  • Аккорды и текст

Страница создана 20.09.2015
http://primanota.ru/bill-withers/sweet-wanomi-chords.htm
Привет, Гость.
Предлагаем пройти революционный курс по гитаре.
Подарок от PrimaNota.Ru, забирай!