PrimaNota.ru - самый крупный в мире бесплатный архив песенных текстов, аккордов, табулатур и нот


Bill Frisell - Probability Cloud - таба, видео

Регистрация Запомнить меня
Войти через:  Facebook Google Twitter Vk Yandex Mail.ru

Bill Frisell - Probability Cloud - таба, видео

Печатать
Просмотров: 153
Уроки эстрадного вокала в Санкт-Петербурге
                  Probability Cloud - Bill Frisell

Tabbed by : Aoakaua
Email : goldendawn04@hotmail.com

Entire piece, entire track
on the album History, Mystery (2008) (Disc 1, Track 3)      

                                                                
E||-----------------------|----------------------|---------------------|
B||-----3--7---6-7--------|------------3--5----4h|--5------------------|
G||--4-----4--------------|----------4-----------|---------------------|
D||-----------------------|---------------5------|---------------------|
A||-----------------------|----------------------|-----2---------------|
E||-----------------------|----------------------|----------0----------|


                                                                         
-----------------------|------------------------|-------------2--1-2----|
-----5--4h5------------|-----0------------------|---------3---0---------|
--3--------------------|---------7--6h7---------|------4----------------|
--2--------------------|--4------9--8h9---------|-----------------------|
-----------------------|------------------------|-----------------------|
--2--------------------|------------------------|-----------------------|


                                                                           
---------------------|-----------------------------|----------------------|
---------------------|-----3--5----5-4-5-----------|---------------5-4-5--|
--0------------------|--4--------------------------|----------------------|
----3--4-------------|-------------5-4-5-----------|----------4-----------|
---------------------|----------------------6--7---|----------------------|
---------------------|-----------------------------|----------------------|


                                                                           
--------------------|----------------------------|------------------------|
--------------------|--------3---2-3-------------|------------2--3--2-----|
--------------------|-----4-------------4--------|---------0-----------0--|
--------------------|--4----------------4--------|------x-----------------|
--4-----------------|-------------------2--------|------2-----------------|
-----2--------------|----------------------------|------0-----------------|


                                                                    
----------------------|-------------------|------------------------|
-----------2--3---2---|-------------------|--------2--3--2---------|
----------------------|----4--------------|----0-------------0-----|
----------------------|----4--------------|--2---------------------|
------1---------------|----2--------------|--2---------------------|
----------------------|-------------------|--0---------------------|


                                            
-----------------------||
-------2--3--2---------||
------------------4----||
------------------4----||
--1---------------2----||
-----------------------||

************************************

| /   slide up
| \   slide down
| h   hammer-on
| p   pull-off
| ~   vibrato
| +   harmonic
| x   Mute note
| b   Bend
| pb  Pre-bend
| br  Bend release
| pbr Pre-bend release
| brb Bend release bend

************************************
Добавлено: 22.06.2012
Другие материалы по этой песне:
  • Аккорды и текст

Страница создана 22.06.2012
http://primanota.ru/bill-frisell/probability-cloud-chords.htm
Привет, Гость.
Предлагаем пройти революционный курс по гитаре.
Подарок от PrimaNota.Ru, забирай!