PrimaNota.ru - самый крупный в мире бесплатный архив песенных текстов, аккордов, табулатур и нот


Bill Frisell - Kisofim - таба, видео

Регистрация Запомнить меня
Войти через:  Facebook Google Twitter Vk Yandex Mail.ru

Bill Frisell - Kisofim - таба, видео

Печатать
Просмотров: 61
                          Kisofim - Bill Frisell

Masada Guitars (2003)
Composed by John Zorn

Tabbed by Aoakaua
goldendawn04@hotmail.com




E||--5----5----5----5----|--5----5----5-------5--|----5----5----5----5--|
B||--5-------------------|-----------------5-----|----------------------|
G||----------------------|-----------------------|----------------------|
D||----------------------|-----------------------|----------------------|
A||----------------------|-----------------------|----------------------|
E||----------------------|-----------------------|----------------------|



----5-----5----5----5--|----5----3---------------|------------------------|
-------5---------------|------------3-5---3-2----|-----------2---2--------|
-----------------------|-------------------------|-------------------3----|
-----------------------|-------------------------|--2-----2---------------|
-----------------------|-------------------------|-----0------------------|
-----------------------|-------------------------|------------------------|



----------------------0--|----------6---6---5--|-----------------------|
-------------------------|----------8---8---5--|----5--4--3--------2-3-|
--2---------------2------|---------------------|----6--5--3------------|
-----5--2----------------|---------------------|-----------------------|
-----------5--4----------|---------------------|-----------------------|
-------------------------|---------------------|-----------------------|



-----------------------|-----------------------------|-------------------|
--2--------------------|-----------------------------|-------------------|
-------3--2-------2----|---------0-------------------|-------------------|
---------------2-------|------0-----2p-0h-2p-0h-2----|-------------------|
-----------------------|-----------------------------|--0----------------|
-----------------------|-----------------------------|-------------------|



--6----5-------------|-----------------------|------------------------|
--8----5----5--------|--4---3---------2-3-2--|-------2-3-5------------|
------------6--------|--5---3----------------|----3--2-------------2--|
---------------------|-----------------------|------------------2-----|
---------------------|-----------------------|------------------------|
---------------------|-----------------------|------------------------|



--------------------|-----------------------|------------------------------|
--------------------|--------------------3--|--5----6---10p8---6---10p8----|
---------2----------|-----------2--3--6--3--|--6----7---9------7---9-------|
------2-------------|-----------3--5--7-----|------------------------------|
--------------------|------1----------------|------------------------------|
--------------------|-----------------------|------------------------------|



-------------------------|-------------5-------------|---0----------------|
--6----4/-6--5-----------|----------------3----------|--------------------|
--7----5/-7--6--------2--|--3p-2-0h2------------2----|--------------------|
-------------------------|-------------------2-------|---------------4----|
-------------------------|-------------------------0-|--------------------|
-------------------------|---------------------------|---------------3----|



-------------------------|--5-------5----6----7--|------------------0------|
----------------3--5--6--|-------8---------------|--------------10---------|
----0--2h-3--5-----------|-----------------------|---6---------------------|
-------------------------|-----------------------|---------+7--------------|
-------------------------|-----------------------|------+7-----------------|
-------------------------|-----------------------|-------------------------|



--------------------|--3---------------------|-------------------5h-|
---------3----------|------5-3-5-------------|----------------------|
---------3----------|-------------2----------|------------3---------|
---------5----------|-------------------2----|----------------------|
------0-------------|------------------------|--0-------------------|
--------------------|------------------------|---------3------------|



--6p-5p-3-------3-------|---------------------|---------------------------|
-----------3-------5----|---------------------|------2-3--5---3-2---------|
------------------------|---------------------|------2-3--6---3-2-3---2---|
------------------------|--2------------------|-------------------5---2---|
------------------------|---------0-----------|-----------------------0---|
------------------------|------------------3--|---------------------------|



----------------------|---------------|--5-5--6-5-5-5--6h9--9--9--6--5---|
----------------------|---------------|-------------------------------5--|
---------2---------2--|---------------|----------------------------------|
------2---------2--2--|---------------|----------------------------------|
-------------------0--|---------------|----------------------------------|
----------------------|---------------|----------------------------------|



-------------------------|-----9--10--9---------6-5---|
----------------8--------|--------------------------5-|
-------------------------|--7-------------------------|
----7--7--8--8-----------|----------------------------|
-------------------------|----------------------------|
-------------------------|----------------------------|



----------5----------5------|------------5------5-------|
-------5---------5-8---5----|-----5---------5-8---5-----|
----------------------------|---7-----------------------|
----7---------------------7-|--------7---------------7--|
----------------------------|---------------------------|
----------------------------|---------------------------|



--5---6---5-------------|--------------------|------------------------|
------8---5---5--4--3---|--------2-----------|---2-3-5----------------|
--------------6--5--3---|--------2------3----|---2----------2---------|
------------------------|--------------------|-----------2------------|
------------------------|--------------------|------------------0-----|
------------------------|--------------------|------------------------|



-------------------------|-----------------------------------|
-------------------------|---------10p8-------10p8-----------|
------------------6--7---|--9--10---------10---------10----8-|
------------7--8---------|-----------------------------------|
-------------------------|-----------------------------------|
--------6----------------|-----------------------------------|



-------------------------------|-----5--------------|---------------------|
-------------------------------|-----------5--------|------------------2--|
--10-9---9--9------------------|--------7-----------|------------2--3-----|
---------------7--8------7--7--|-----8--------------|--4------5-----------|
---------------------10--------|--0-----------------|---------------------|
-------------------------------|--------------------|--3------------------|



------------5---------5-|----6----7-------------|--------0-------------|
--3--5--6----------8----|-----------------------|----10-------------3--|
------------------------|---------6-------------|-------------------3--|
------------------------|-----------------+7----|-------------------0--|
------------------------|--------------+7-------|----------------------|
------------------------|-----------------------|----------------------|



------------3---------|--------------------|---------------5--6--5--|
---------------5-3-5--|--------------------|--------3---------------|
----------------------|--------------------|--------3---------------|
----------------------|-------2------------|------------------------|
----------------------|--0-----------------|------------------------|
----------------------|--------------------|------------------------|



--3-----3----------------------|-----------------------------|
-----3-----5-------------------|--------------------2--3--5--|
--------------2--0-------------|-----------------------------|
--------------------2----------|-----------------------------|
-----------------------4--0----|-----------------------------|
-------------------------------|--------0--1--3--------------|



----------------------|----------------------|-------------------|
------------3-2-------|----------------------|-------------------|
----------------3--2--|-------------2-----2--|----2--------------|
----------------------|----------2-----2-----|----2--------------|
----------------------|----------------------|----0--------------|
----------------------|----------------------|-------------------|



---------15--17--17--17--17h15-------------------|
----------------------------------18--17--15--14-|
--14-14------------------------------------------|
-------------------------------------------------|
-------------------------------------------------|
-------------------------------------------------|



-------------------------------------------|--------------------------------|
---15h14-----------17--17--17p-15--15--14--|--14----------------------------|
-------15--14------------------------------|-------15--14----------12---12--|
---------------14--------------------------|---------------14---14----------|
-------------------------------------------|--------------------------------|
-------------------------------------------|--------------------------------|



-----------------------------|----------5-----5--5--|
-----------------------------|----------3-----------|
-----------------------------|---3------2-----------|
--15--14--12---14------------|----------2-----------|
-------------------16------0-|----------0-----------|
-----------------------------|----------------------|



--5--5--5--5--10h12--12----------|--------------12--------12--------------|
--------------------------10--10-|----11----11------11----------11p10--10-|
---------------------------------|----------------------------------------|
---------------------------------|----------------------------------------|
---------------------------------|----------------------------------------|
---------------------------------|----------------------------------------|



--12----12---------------------------------------|
-------------10-11-10-11--8h10---10--10h11----11-|
-------------------------------------------------|
-------------------------------------------------|
-------------------------------------------------|
-------------------------------------------------|



--------------------------------------|-----------------------------5--|
---8h10---10--------------------------|-----------------------------2--|
------------9-------------------------|-----------------------------3--|
-----------------7----7--7-8-7-8-7--8-|----------7--7------------------|
--------------------------------------|---10--10-------7----7--0-------|
--------------------------------------|--------------------------------|



----------------------|----------17----|-----17--15--17----15--17------|
-------------------17-|----------------|---------------------------17--|
--------------14------|----------------|-------------------------------|
----------------------|----------------|-------------------------------|
----------------------|----------------|-------------------------------|
----------------------|------------------------------------------------|



----17--15--17--------17--15--17----15--17--|----------------------------|
----------------17--------------------------|--17---15-------------------|
--------------------------------------------|------------18p-----15--14--|
--------------------------------------------|----------------------------|
--------------------------------------------|----------------------------|
--------------------------------------------|----------------------------|



----------------------------------|------------------------------|
----------------------------------|------------------------------|
--14--12h14-----------------------|------------------------------|
-------------14--14--12--11---11--|--8--7--7---------------------|
----------------------------------|-----------10--7----------0---|
----------------------------------|------------------10--7h9-----|



---------------------|------6---6--6--6--5-----|-----------------------|
---------------------|------8---8--8--8--x--5--|---4---3--------2-3-2--|
------------2--------|----------------------6--|---5---3---------------|
--------2------------|-------------------------|-----------------------|
---------------------|-------------------------|-----------------------|
----0----------------|-------------------------|-----------------------|



----------------------|---------------------5------|----------6----5----|
----------------------|----------------------------|----------8----5----|
----3-2-------------2-|-------0--------------------|--------------------|
-----------------2----|----0-----2--0--2-----------|--------------------|
----------------------|----------------------------|--------------------|
----------------------|----------------------------|--------------------|



---------------------|-------------------------|--------------------5--|
--5------4---3-------|----2-3-2---------2-3-5--|-----------------------|
--6------5---3-------|---------------3--2------|---------2-------2-----|
---------------------|------------------2------|------2-------2--------|
---------------------|------------------0------|-----------------------|
---------------------|-------------------------|-----------------------|



----------------------|--------------------------|-------------------------|
----------------------|--2--3---5--6---10-8---6--|--10-8---6---4-6--5------|
---2------------2--3--|--2--3---6--7---9------7--|--9------7---5-7--6------|
-----------3----3--5--|--------------------------|---------------------+7--|
-----------1----------|--------------------------|-------------------------|
----------------------|--------------------------|-------------------------|



----------------------5--|-----------5-------------5--------|
-------------------------|----------------------------------|
---------2--3--2p0h2-----|--2-----2-------2-----2-----2-----|
-------------------------|----------------------------------|
---+7------------------0--|-----0-------------0-------------|
-------------------------|----------------------------------|



-------------------------|-----5----3----5----6--|----7----5---------------|
-------------------3--5--|--6--------------------|------------5------------|
----------2--3--5--------|-----------------------|----6--------------------|
---4---5-----------------|-----------------------|----------------+7----+7-|
-------------------------|-----------------------|-------------------+7----|
---3---------------------|-----------------------|-------------------------|



-------------3----------|---------------------|---------5h-6p-5p-3-----3----|
--------3---------5-3-5-|---------------------|---------------------3-----5-|
--------3---------------|---------2-----------|----3------------------------|
--------5---------------|------2--------------|----5------------------------|
------0-----------------|---0-----------------|-----------------------------|
------------------------|---------------------|-----------------------------|



---------------------|--------------------------|----------------------|
---------------------|------------2-3-5--3-2----|----------------------|
----------2----------|-----0------2-3-6--3-2-3--|--2-------------------|
-------2-------------|-----------------------5--|--2-------------------|
----0----------------|--------------------------|--0---------0---------|
---------------------|--3-----------------------|---------0-------0----|



---------------5---5---|--5---5---5---5---5--3-----|------------------------|
-----------------------|------------------------5--|--------5-----5----5--3-|
--------2--------------|---------------------------|----2-------------------|
-----2-----------------|---------------------------|------------------------|
--0--------------------|---------------------------|------------------------|
-----------------------|---------------------------|------------------------|



-----------------------|--------------------------|-------------------------|
--2-------2----2---2---|--2-----------------------|-------------------------|
-----------------------|-----3--2----2---2---2----|---2---2--0--------------|
------2----------------|--------------------------|-------------2----2---2--|
-----------------------|--------------------------|-------------------------|
-----------------------|--------------------------|-------------------------|



---------------------|------------------||
---------------------|------------------||
-----------2---------|------------------||
--2---2----2---------|------------------||
-----------0---------|------------------||
---------------------|------------------||

************************************

| /   slide up
| \   slide down
| h   hammer-on
| p   pull-off
| ~   vibrato
| +   harmonic
| x   Mute note
| b   Bend
| pb  Pre-bend
| br  Bend release
| pbr Pre-bend release
| brb Bend release bend

************************************
Добавлено: 04.10.2013
Вам также может быть интересно:
Другие материалы по этой песне:

Страница создана 11.07.2013
http://primanota.ru/bill-frisell/kisofim-chords.htm
Привет, Гость.
Предлагаем пройти революционный курс по гитаре.
Подарок от PrimaNota.Ru, забирай!