PrimaNota.ru - самый крупный в мире бесплатный архив песенных текстов, аккордов, табулатур и нот


Bill Fox - Junked Lot Serenade - таба

Регистрация Запомнить меня
Войти через:  Facebook Google Twitter Vk Yandex Mail.ru

Bill Fox - Junked Lot Serenade - таба

Печатать
Просмотров: 102
-----------------------------------------------------------------------------
                             Junked Lot Serenade - Bill Fox
-----------------------------------------------------------------------------
Tabbed by: Jeff

The pitch on his recording is about 30 cents flat, so tune your guitar 30 flat to match
likewise raise the recording 30 cents sharp

Capo on 3rd fret

Verse:

e|---0-------0-------0------0-------0----------------------------------------|
B|----------------0------------------------0---------4---------0-------------|
G|-1--------------1----1--1---1------------3---------4---------3-------------|
D|-2----2--2---2--2----2--2---2--2-------2---2----2----2----3----3-----------|
A|-2----2--2---2--0----0--0---0--2----4--------------------------------------|
E|-0----0--0---0-----------------0--------------4---------3------------------|


e|------------------------------0-------0---------------------------------------|
B|-------5-------5------------0---0---0---0-------------------------------------|
G|-----4---4---4----4---------------2-------------------------------------------|
D|-----------6------------------------------------------------------------------|
A|------------------------------------------------------------------------------|
E|--4------------------4---2----------------------------------------------------|

          E                        Amaj7no3               E       Amaj7no3
There's a restless wind and you're callin out here in the night
          E                 Amaj7no3                  B5   B5/A "/G# "/F#
With your violets waving so softly 'round here in the light
        E                 Amaj7no3                 E       Amaj7no3
And the trees shake their leaves with thousands to spend
I've been a long time gone darlin' baby how have you been?

I've had my heart stretched out like a tarp in a transfusion sky
Where bewildered lips of mad ghost children sigh
And the stars form their tragedies at ten
I would never have believed darlin' you'd ever come back here again

Well I just came from the valley where ten thousand brass?? low
To steal and set a fire from the shadow of a crow
But do your petals open up to the wind?
I've been a long time comin' I wanna kiss you once again

Well I suppose I should   give you shelter from this smoke
If you can and you're careful to watch how you joke
Then I would gladly lend my leer for a song
As the night gets so silent and long

And if you wake me 'fore you leave once again
Then I do believe me darlin' that I might let you in

(to be updated...)

************************************

| /   slide up
| \   slide down
| h   hammer-on
| p   pull-off
| ~   vibrato
| +   harmonic
| x   Mute note
| b   Bend
| pb  Pre-bend
| br  Bend release
| pbr Pre-bend release
| brb Bend release bend

************************************
Добавлено: 27.05.2012
Другие материалы по этой песне:
  • Аккорды и текст

Страница создана 27.05.2012
http://primanota.ru/bill-fox/junked-lot-serenade-chords.htm
Привет, Гость.
Предлагаем пройти революционный курс по гитаре.
Подарок от PrimaNota.Ru, забирай!