PrimaNota.ru - самый крупный в мире бесплатный архив песенных текстов, аккордов, табулатур и нот


Bill Conti - Going The Distance - таба, видео

Регистрация Запомнить меня
Войти через:  Facebook Google Twitter Vk Yandex Mail.ru

Bill Conti - Going The Distance - таба, видео

Печатать
Просмотров: 557
Уроки эстрадного вокала в Санкт-Петербурге
-----------------------------------------------------------------

Going the Distance – Bill Conti, Rocky 1 Soundtrack

-----------------------------------------------------------------

Tabbed by:
Chris Giuliano
Email:2giuliano2@gmail.com
Tuning:
Standard
Key: Am
Some assistance with notes referencing Songsterr.com
*The song has multiple instruments.  These are the melodies that stand out in the 
song to me and are my own version.  Enjoy and stay motivated!
e|---------------------------------------------------------------|
B|---------------------------------------------------------------|
G|---------------9-7-------7--------9p7h9~~ 7--------------------|
D|---7 7 7 7 7 7-----9(10)   9 5/7---------   10 9 7 7 ----------|
A|---------------------------------------------------------------|
E|---------------------------------------------------------------|

e|---------------------------------------------------------------|
B|---------------------------------------------------------------|
G|-----7----7 9 ---------7 9(10)r(9)~~~ 7------------------------|
D|9 10-- 10------10 9 10 -----------------10 9 10 9 7~~----------|
A|---------------------------------------------------------------|
E|---------------------------------------------------------------|

e|---------------------------------------------------------------|
B|---------------------------------------------------------------|
G|---------------------------------------------------------------|
D|-9p7h9 7 3~--7p5h7---3 2~~~------------------------------------|
A|---------------------------------------------------------------|
E|---------------------------------------------------------------|

e|-------------------12 10------10---------12 10 12--------------|
B|-10 10 10 10 10 10 ------13~~----12-8/10-----------------------|
G|---------------------------------------------------------------|
D|---------------------------------------------------------------|
A|---------------------------------------------------------------|
E|---------------------------------------------------------------|

e|-10-------------------10---------------------------------------|
B|---13 12 10 10~~ 12 13----13~~15 17 13 12 13 15 17(18)r17~~----|
G|---------------------------------------------------------------|
D|---------------------------------------------------------------|
A|---------------------------------------------------------------|
E|---------------------------------------------------------------|






e|---------------------------------------------------------------|
B|-15 13 12 13 12 10~~ 12 10 12~~ 10\6 10p8h10~~8 6 5~~----------|
G|---------------------------------------------------------------|
D|---------------------------------------------------------------|
A|---------------------------------------------------------------|
E|---------------------------------------------------------------|


e|--8 7 8 7 5-------5 7 5~~ 7 8 12 10 13 12 15  12 --------------|
B|------------8 6~ 8---------------------------13----------------|
G|---------------------------------------------------------------|
D|---------------------------------------------------------------|
A|---------------------------------------------------------------|
E|---------------------------------------------------------------|

e|-10 13/17—15p13h15  15 17(19)r17~17 15~ 17p15h17---------------|
B|---------------------------------------------------------------|
G|---------------------------------------------------------------|
D|---------------------------------------------------------------|
A|---------------------------------------------------------------|
E|---------------------------------------------------------------|

Freestyle for a few measures.  Octave was too high for guitar

e|-----------12~~  13 12 13 12 13 12 ----------------------------|
B|-----12 13 ------------------------15-- 15 13 12 12~~  --------|
G|-/14-----------------------------------------------------------|
D|---------------------------------------------------------------|
A|---------------------------------------------------------------|
E|---------------------------------------------------------------|

e|------- 12 13 12 13~---12 13 12 -------------------------------|
B|-13 15--------------15----------15 13--------------------------|
G|---------------------------------------------------------------|
D|---------------------------------------------------------------|
A|---------------------------------------------------------------|
E|---------------------------------------------------------------|

e|-15~~ 13 12  12 12h13---------15(17) 10 12 13 12h13p10 7 0-----|
B|---------------------------------------------------------------|
G|---------------------- 14~-------------------------------------|
D|---------------------------------------------------------------|
A|---------------------------------------------------------------|
E|---------------------------------------------------------------|

e|-12 10 13 12 10 10h12p8 7 7h8p5-----------15-13~~12 10 19 17 15|
B|-------------------------------------12-13---------------------|
G|---------------------------------\14---------------------------|
D|---------------------------------------------------------------|
A|---------------------------------------------------------------|
E|---------------------------------------------------------------|







e|--12 13 15-15 15(17)~---13-12 13 12h13p12----------------------|
B|---------------------13 ----------------- 15~------------------|
G|---------------------------------------------------------------|
D|---------------------------------------------------------------|
A|---------------------------------------------------------------|
E|---------------------------------------------------------------|



e|----------------------------12---------------------------------|
B|-13 12~ 13 12--------------12----15 13 15 12 13 12 13 ---------|
G|            -14 13----13-14------------------------------------|
D|-------------------14------------------------------------------|
A|---------------------------------------------------------------|
E|---------------------------------------------------------------|





e|-12---12--- 12  12 -12----------------12 13 12 ----------------|
B|---15----13---12------15--13 12 --------------15 13 12 --------|
G|--------------------------------14-------------------14 14-----|
D|---------------------------------------------------------------|
A|---------------------------------------------------------------|
E|---------------------------------------------------------------|

e|-------------------15 13---------------------------------------|
B|-13 13 13 13 13 13 --------------------------------------------|
G|---------------------------------------------------------------|
D|---------------------------------------------------------------|
A|---------------------------------------------------------------|
E|---------------------------------------------------------------|

| /  slide up
| \  slide down
| h  hammer-on
| p  pull-off
| ~  vibrato
| +  harmonic
| x  Mute note 
Добавлено: 03.06.2012
Другие материалы по этой песне:

Страница создана 04.03.2012
http://primanota.ru/bill-conti/going-the-distance-chords.htm
Привет, Гость.
Предлагаем пройти революционный курс по гитаре.
Подарок от PrimaNota.Ru, забирай!