PrimaNota.ru - самый крупный в мире бесплатный архив песенных текстов, аккордов, табулатур и нот


Bill And Howdy - Misty Morning Confrontation - бас-таба, видео

Регистрация Запомнить меня
Войти через:  Facebook Google Twitter Vk Yandex Mail.ru

Bill And Howdy - Misty Morning Confrontation - бас-таба, видео

Печатать
Просмотров: 14
Tabbed by: 6METAL6BASSIST6
E-mail: petergriffinav@gmail.com

Tuning: EADG

0:18

G|4-----------4-------------------4-----------4-------2-------4---|
D|------------------------------------------------2h4-----2h4-----|
A|----------------------------------------------------------------|
E|----------------------------------------------------------------|

0:28

G|----------------------------------------------------------------|
D|------------------------------------------------------------4---| x3
A|2-----------2---------------2---2-------------------------------|
E|----------------------------------------------------------------|

G|------------------------------------------------------------4---|
D|--------------------------------------------------------4-------|
A|2-----------2---------------2---2-------------------------------|
E|----------------------------------------------------------------|

0:46

G|------------------------------------------------|
D|2-----------2---2-----------2---2-----------4---|
A|------------------------------------------------|
E|------------------------------------------------|

G|----------------------------------------------------------------|
D|----------------------------4-------------------------------4---|
A|2-------2-----------------------2-------2-----------------------|
E|----------------------------------------------------------------|

G|------------------------------------------------|
D|2-----------2---2-----------2---2-----------4---|
A|------------------------------------------------|
E|------------------------------------------------|

G|------------------------------------------------------------4---|
D|----------------------------4---------------------------4-------|
A|2-------2-----------------------2-------2-----------------------|
E|----------------------------------------------------------------|

1:03

G|2-------2-------2---------------------------------------6-------|
D|--------------------2-------------------------------4-----------|
A|------------------------0-------4-------4-------4---------------|
E|----------------------------------------------------------------|

G|----------------------------------------------------------------|
D|2-----------2---------------------------------------------------|
A|----------------------------------------------------------------|
E|----------------------------------------------------------------|

G|4-----------4-------------------4-----------4-------2-------4---|
D|------------------------------------------------2h4-----2h4-----|
A|----------------------------------------------------------------|
E|----------------------------------------------------------------|

1:17

G|----------------------------4-------------------------------4---|
D|--------------------------4-----------------------------4-------|
A|2-----------2-------------------2-----------2-------------------|
E|----------------------------------------------------------------|

G|----------------------------4-------------------------------4---|
D|--------------------------4-------------------------------------|
A|2-----------2-------------------2-----------2-------------------|
E|----------------------------------------------------------------|

G|----------------------------4-------------------------------4---|
D|--------------------------4-----------------------------4-------|
A|2-----------2-------------------2-----------2-------------------|
E|----------------------------------------------------------------|

G|----------------------------4-------------------------------4---|
D|--------------------------4-------------------------4-----------|
A|2-----------2-------------------2-----------2-------------------|
E|----------------------------------------------------------------|

1:37

G|------------------------------------------------|
D|2-----------2---2-----------2---2-----------4---|
A|------------------------------------------------|
E|------------------------------------------------|

G|4-------4-----------4-----------4-------4-----------4-----------|
D|----------------4/6-----------------------------4/6---------6-\-|
A|----------------------------------------------------------------|
E|----------------------------------------------------------------|

G|------------------------------------------------|
D|2-----------2---2-----------2---2-----------4---|
A|------------------------------------------------|
E|------------------------------------------------|

G|--------------------4-----------4-------4-----------4-------3---|
D|------------------------------------------------4/6-------------|
A|2-------2-------------------------------------------------------|
E|----------------------------------------------------------------|

1:54

G|2-------2-------2---------------------------------------6-------|
D|--------------------2-------------------------------4-----------|
A|------------------------0-------4-------4-------4---------------|
E|----------------------------------------------------------------|

G|----------------------------------------------------------------|
D|2-----------2---------------------------------------------------|
A|----------------------------------------------------------------|
E|----------------------------------------------------------------|

G|4-----------4-------------------4-----------4-------2-------4---|
D|------------------------------------------------2h4-----2h4-----|
A|----------------------------------------------------------------|
E|----------------------------------------------------------------|

2:07

G|4-----------4---------------------------------------------------|
D|--------------------6-------4-\---------------------4-----/-6---|
A|--------------------------------2-----------2-------------------|
E|----------------------------------------------------------------|

G|4-----------4-----------------------------------------------4---|
D|--------------------6-------4-\-----------------4---------------| x2
A|--------------------------------2-----------2-------------------|
E|----------------------------------------------------------------|

G|4-----------4---------------------------------------4-----------|
D|--------------------6---------------------------4-----------4---|
A|----------------------------2---2-----------2-------------------|
E|----------------------------------------------------------------|

2:26

G|------------------------------------------------|
D|2-----------2---2-----------2---2-----------4---|
A|------------------------------------------------|
E|------------------------------------------------|

G|4-------4-----------4-------------------4-----------4-----------|
D|----------------4/6---------6-\-----------------4/6---------6-\-|
A|--------------------------------2-------------------------------|
E|----------------------------------------------------------------|

G|------------------------------------------------|
D|2-----------2---2-----------2---2-----------4---|
A|------------------------------------------------|
E|------------------------------------------------|

G|4-------4-----------4-------------------4-----------4-------3---|
D|----------------4/6---------6-\-----------------4/6-------------|
A|--------------------------------2-------------------------------|
E|----------------------------------------------------------------|

2:43

G|2-------2-------2---------------------------------------6-------|
D|--------------------2-------------------------------4-----------|
A|------------------------0-------4-------4-------4---------------|
E|----------------------------------------------------------------|

G|----------------------------------------------------------------|
D|2-----------2---------------------------------------------------|
A|----------------------------------------------------------------|
E|----------------------------------------------------------------|
Добавлено: 31.05.2016
Другие материалы по этой песне:
  • Аккорды и текст

Страница создана 31.05.2016
http://primanota.ru/bill-and-howdy/misty-morning-confrontation-chords.htm
Привет, Гость.
Предлагаем пройти революционный курс по гитаре.
Подарок от PrimaNota.Ru, забирай!