PrimaNota.ru - самый крупный в мире бесплатный архив песенных текстов, аккордов, табулатур и нот


Bikini Kill - Sugar - текст песни, бас-таба, видео

Регистрация Запомнить меня
Войти через:  Facebook Google Twitter Vk Yandex Mail.ru

Bikini Kill - Sugar - текст песни, бас-таба, видео

Печатать
Просмотров: 133
Sugar
Bikini Kill
Pussy Whipped

4/4

G|---------------------------------|
D|---------------------------------|
A|---------------------------------|
E|-5---5-5-5-5-5-5-5-5-5-5-5-8-8-8-|   x8
   ^   ^
 (4th)(8ths)
(first bar begins without a fourth note, just all eighth notes)

G|---------------------------------|
D|---------------------------------|
A|---------------------------------|
E|-3---3-3-3-3-3-3-2-2-2-2-2-2-2-2-|

G|---------------------------------|
D|---------------------------------|
A|---------------------------------|
E|-5-5-5-5-5-5-5-5-5-5-5-5-5-5-5-5-|

G|---------------------------------|
D|---------------------------------|
A|---------------------------------|
E|-3---3-3-3-3-3-3-2-2-2-2-2-2-2-2-|

G|---------------------------------|
D|---------------------------------|
A|---------------------------------|
E|-5---5-5-5-5-5-5-5-5-5-5-5-8-8-8-|   x8

G|---------------------------------|
D|---------------------------------|
A|---------------------------------|
E|-3---3-3-3-3-3-3-2-2-2-2-2-2-2-2-|

G|---------------------------------|
D|---------------------------------|
A|---------------------------------|
E|-5-5-5-5-5-5-5-5-5-5-5-5-5-5-5-5-|

G|---------------------------------|
D|---------------------------------|
A|---------------------------------|
E|-3---3-3-3-3-3-3-2-2-2-2-2-2-2-2-|

G|---------------------------------|
D|---------------------------------|
A|---------------------------------|
E|-5---5-5-5-5-5-5-5-5-5-5-5-8-8-8-|   x8

G|---------------------------------|  _
D|---------------------------------|   \
A|---------------------------------|    \
E|-3---3-3-3-3-3-3-2-2-2-2-2-2-2-2-|     \
                                          > x3
G|---------------------------------|     /
D|---------------------------------|    /
A|---------------------------------|  _/
E|-5-5-5-5-5-5-5-5-5-5-5-5-5-5-5-5-|

G|---------------------------------|
D|---------------------------------|
A|---------------------------------|
E|-3---3-3-3-3-3-3-2-2-2-2-2-2-2-2-|

G|---------------------------------||
D|---------------------------------||
A|---------------------------------||
E|-5-------------------------------||
  (ring out)
Добавлено: 12.09.2013
Вам также может быть интересно:
Другие материалы по этой песне:
  • Аккорды и текст

Страница создана 30.08.2013
http://primanota.ru/bikini-kill/sugar-chords.htm
Привет, Гость.
Предлагаем пройти революционный курс по гитаре.
Подарок от PrimaNota.Ru, забирай!