PrimaNota.ru - самый крупный в мире бесплатный архив песенных текстов, аккордов, табулатур и нот


Bikini Kill - Rebel Girl - аккорды и текст, таба, бас-таба, видео

Регистрация Запомнить меня
Войти через:  Facebook Google Twitter Vk Yandex Mail.ru

Bikini Kill - Rebel Girl - аккорды и текст, таба, бас-таба, видео

Печатать
Просмотров: 337
Rebel Girl
Bikini Kill
		   Bikini Kill -- "Rebel Girl"
Tabbed by Tim  Nevaker: tnevak2@gl.umbc.edu


Opening, with feedback:


   |----------- P.M. ----------|       |----------- P.M. ----------|
e:------------------|-----------------|-----------------|-----------------|
B:------------------|-----------------|-----------------|-----------------|
G:------------------|-----------5-5-5-|-----------------|-----------7-7-7-|
D:--2-2-2-2-2-2-2-2-|-2-2-2-2-2-5-5-5-|-2-2-2-2-2-2-2-2-|-2-2-2-2-2-5-5-5-|
A:--0-0-0-0-0-0-0-0-|-0-0-0-0-0-3-3-3-|-0-0-0-0-0-0-0-0-|-0-0-0-0-0-5-5-5-|
E:------------------|-----------------|-----------------|-----------------|

G:------------------|-----------------|-----------------|-----------------|
D:------------------|-----------------|-----------------|-----------------|
A:--0-0-0-0-0-0-0-0-|-0-0-0-0-0-3-3-3-|-0-0-0-0-0-0-0-0-|-0-0-0-0-0-------|
E:------------------|-----------------|-----------------|-----------3-3-3-|





      |------- P.M. ----------|           |----- P.M. ----|
e:-----------------|-----------------|-----------------|------------------||
B:-----------------|-----------------|-----------------|---5--------------||
G:-2---------------|-----------5-5-5-|---2-------------|---------4b(5)----||
D:-2-2-2-2-2-2-2-2-|-2-2-2-2-2-5-5-5-|-2-2-2-2-2-2-2-2-|-2----------------||
A:-0-0-0-0-0-0-0-0-|-0-0-0-0-0-3-3-3-|-0-0-0-0-0-0-0-0-|-0----------------||
E:-----------------|-----------------|-----------------|------------------||

G:-----------------|-----------------|-----------------|------------------||
D:-----------------|-----------------|-----------------|------------------||
A:-0-0-0-0-0-0-0-0-|-0-0-0-0-0-3-3-3-|-0-0-0-0-0-0-0-0-|-0-0-0-0-0--------||
E:-----------------|-----------------|-----------------|------------3-3-3-||



The verses pretty much follow this pattern, with variations:


e:------------------|-----------------|-----------------|-----------------||
B:------------------|-----------------|-----------------|-----------------||
G:------------------|-----------5-5-5-|-----------------|-----------7-7-7-||
D:--2-2-2-2-2-2-2-2-|-2-2-2-2-2-5-5-5-|-2-2-2-2-2-2-2-2-|-2-2-2-2-2-5-5-5-||
A:--0-0-0-0-0-0-0-0-|-0-0-0-0-0-3-3-3-|-0-0-0-0-0-0-0-0-|-0-0-0-0-0-5-5-5-||
E:------------------|-----------------|-----------------|-----------------||

G:------------------|-----------------|-----------------|-----------------||
D:------------------|-----------------|-----------------|-----------------||
A:--0-0-0-0-0-0-0-0-|-0-0-0-0-0-3-3-3-|-0-0-0-0-0-0-0-0-|-0-0-0-0-0-------||
E:------------------|-----------------|-----------------|-----------3-3-3-||



The Chorus just repeats this riff:


e:------------------|-----------------||
B:------------------|-----------------||
G:--2-2-2-2-2-2-2-2-|-2-2-2-2-2-------||
D:--2-2-2-2-2-2-2-2-|-2-2-2-2-2-5-5-5-||
A:--0-0-0-0-0-0-0-0-|-0-0-0-0-0-5-5-5-||
E:------------------|-----------3-3-3-||

G:------------------|-----------------||
D:------------------|-----------------||
A:--0-0-0-0-0-0-0-0-|-0-0-0-0-0-------||
E:------------------|-----------3-3-3-||



The first guitar fill after the first chorus:

   |---|   |-|       |---|   |-|       |---|   |-|
e:------------------|-----------------|-----------------|
B:------1-1-----1-1-|-----1-1---------|-----1-1---3-3-5-|
G:------2-2---2-2-2-|-----2-2---5-5-5-|-----2-2---------|
D:--2-2-2-2-2-2-2-2-|-2-2-2-2-2-5-5-5-|-2-2-2-2-2-------|
A:--0-0-0-0-0-0-0-0-|-0-0-0-0-0-3-3-3-|-0-0-0-0-0-------|
E:------------------|-----------------|-----------------|


   ^   ^     ^    ^     ^     ^     ^           ^   ^   ^     ^
e:--------------------|-----------------------|-------------------|
B:---5----------------|-----------------------|----------- 7>---7-|
G:-----7---b(8)---5---|-----------------------|---------5-----5-5-|
D:------------------7-|-6/7-7-7-6/7-7-7-6/7-7-|-7-7-7-7-----------|
A:--------------------|-----------------------|-------------------|
E:--------------------|-----------------------|-------------------|


   ^     ^     ^   ^       ^   ^    ^   ^
e:---------------------|--------------------||
B:---------------------|--------------------||
G:-------------------5-|-b(6)--7b(8)----5---||
D:-6/7-7-7-6/7-7-7-7---|------------------7-||
A:---------------------|--------------------||
E:---------------------|--------------------||



The second guitar fill after the second chorus:

   |---|   |-|                         |---|   |-|
e:------------------|-----------------|-----------------|------------------|
B:------1-1---1-1-3-|---3-3-3-3-------|-----1-1---1-1-3-|---3-5------5-5-5-|
G:------2-2---2-2-2-|---2-2-2-2-5-5-5-|-----2-2---2-2-2-|---2--------------|
D:--2-2-2-2-2-2-2-2-|---2-2-2-2-5-5-5-|-2-2-2-2-2-2-2-2-|---2--------------|
A:--0-0-0-0-0-0-0-0-|---0-0-0-0-3-3-3-|-0-0-0-0-0-0-0-0-|---0--------------|
E:------------------|-----------------|-----------------|------------------|


  |---|   |-|                           ^   ^   ^   ^
e:-----0-0---0-0-2-|-(2)--------2-2-2-|-----------------|
B:-----1-1---1-1-1-|-(1)--------1-1-1-|-1-----------3---|
G:-----2-2---2-2---|------------2-2-2-|---------2-0-2---|
D:-2-2-2-2-2-2-2---|------------------|-----------------|
A:-0-0-0-0-0-0-0---|------------------|-----------------|
E:-----------------|------------------|-----------------|


      ^    ^   ^
e:---------0-----------||
B:-3b(5)---------1-1-1-||
G:---------------0-0-0-||
D:---------------------||
A:---------------------||
E:---------------------||



The end of the song:


e:------------------|-----------------|-----------------|-----------------|
B:------2-----3-----|-2-----0-----0-0-|-----2-----3---2-|-------0---0-0-0-|
G:--2-2-------------|-----------0-0-0-|-2-2-------------|-----------0-0-0-|
D:--2-2-------------|-----------0-0-0-|-2-2-------------|-----------0-0-0-|
A:--0-0-------------|-----------x-x-x-|-0-0-------------|-----------x-x-x-|
E:------------------|-----------3-3-3-|-----------------|-----------3-3-3-|

G:------------------|-----------------|-----------------|-----------------|
D:------------------|-----------------|-----------------|-----------------|
A:--0-0-0-0-0-0-0-0-|-0-0-0-0-0-------|-0-0-0-0-0-0-0-0-|-0-0-0-0-0-------|
E:------------------|-----------3-3-3-|-----------------|-----------3-3-3-|




e:-----------------|-----------------|-----------------|-------0-------|
B:-----2-----3-----|-2-----0---------|-----2-----3-----|-2-----0-------|
G:-2-2-------------|-----------2-0-2-|-2-2-2---2-2-----|-2-----2-------|
D:-2-2-------------|-----------------|-2-2-----2-2-----|-2-----2-------|
A:-0-0-------------|-----------------|-0-0-----0-0-----|-0-----0-------|
E:-----------------|-----------------|-----------------|---------------|

G:-----------------|-----------------|-----------------|---------------|
D:-----------------|-----------------|-----------------|---------------|
A:-0-0-0-0-0-0-0-0-|-0-0-0-0-0-------|-0-0-0-0-0-0-0-0-|-0-0-0-0-0-0-0-|
E:-----------------|-----------3-3-3-|-----------------|---------------|




e:-------||
B:-------||
G:-------||
D:-------||
A:-------||
E:-------||

G:-------||
D:-------||
A:-0-----||
E:-------||     
Добавлено: 14.07.2013
Другие материалы по этой песне:

Страница создана 14.04.2012
http://primanota.ru/bikini-kill/rebel-girl-chords.htm
Привет, Гость.
Предлагаем пройти революционный курс по гитаре.
Подарок от PrimaNota.Ru, забирай!