PrimaNota.ru - самый крупный в мире бесплатный архив песенных текстов, аккордов, табулатур и нот


Bigwig - Time Bomb - текст песни, бас-таба, видео

Регистрация Запомнить меня
Войти через:  Facebook Google Twitter Vk Yandex Mail.ru

Bigwig - Time Bomb - текст песни, бас-таба, видео

Печатать
Просмотров: 152
- Bigwig - Time Bomb
- Tabbed by: Pacu, bassist from a brazilian punk rock banda called PunkAss.
- Easy song by Bigwig.

__________
Intro [00:05]
G|------------|----|
D|------------|----|
A|------5-----|-1x-|
E|-3~-33-5555-|----|

G|----------------------------------|----|
D|----------------------------------|----|
A|-222-45---5-----------------------|-1x-|
E|--------33-5555-22222222-33335555-|----|

G|----------------|----|
D|----------------|----|
A|-222-45---5-----|-1x-|
E|--------33-5555-|----|

G|-------------------|----|
D|-------------------|----|
A|-222-45------5-----|-1x-|
E|--------3~-33-5555-|----|

G|----------------------------------|----|
D|----------------------------------|----|
A|-222-45---5-----------------------|-1x-|
E|--------33-5555-22222222-33335555-|----|

Verse I
G|---------------|----|------------------|----|
D|---------------|----|------------------|----|
A|-2-2-stop-bass-|-1x-|------------------|-1x-|
E|---------------|----|-3333333333333333-|----|

G|----------------------------------|----|
D|----------------------------------|----|
A|-2222222222222222-----------------|-1x-|
E|-----------------3333333333333333-|----|

G|-----------------------------------|----|
D|-----------------------------------|----|
A|-2222222222224542--------------540-|-1x-|
E|------------------3333333333333----|----|

G|------------------|----|
D|------------------|----|
A|-2222222222224542-|-1x-|
E|------------------|----|

Pre-chorus
G|-------------------------------------|----|
D|-------------------------------------|----|
A|-------------------------------------|-1x-|
E|-00000000-22222222-33333333-55556666-|----|

Chorus
G|---------------------|----|
D|---------------------|----|
A|-222-------555-------|-3x-|
E|----2-3335----3-5553-|----|

G|-----------------|----|
D|-----------------|----|
A|----------5555-4-|-1x-|
E|-22222222--------|----|

Verse II
G|---------------------------------|----|
D|---------------------------------|----|
A|-2-2-2-2-2-2---------------------|-2x-|
E|-------------2-2-3-3-3-3-3-3-3-3-|----|

G|-----------------------------------|----|
D|-----------------------------------|----|
A|-2222222222224542--------------540-|-1x-|
E|------------------3333333333333----|----|

G|------------------|----|
D|------------------|----|
A|-2222222222224542-|-1x-|
E|------------------|----|

Pre-chorus
G|-------------------------------------|----|
D|-------------------------------------|----|
A|-------------------------------------|-1x-|
E|-00000000-22222222-33333333-55556666-|----|

Chorus
G|---------------------|----|
D|---------------------|----|
A|-222-------555-------|-3x-|
E|----2-3335----3-5553-|----|

G|-----------------|----|
D|-----------------|----|
A|----------5555-4-|-1x-|
E|-22222222--------|----|

Bridge
G|-----------------------|----|
D|-----------------------|----|
A|-222---222-------------|-2x-|
E|-------------333---555-|----|

G|-----------------------------------|----|
D|-----------------------------------|----|
A|-2222222222222222------------------|-1x-|
E|------------------3333333355555555-|----|

Chorus
G|---------------------|----|
D|---------------------|----|
A|-222-------555-------|-3x-|
E|----2-3335----3-5553-|----|

G|-----------------|----|
D|-----------------|----|
A|----------5555-4-|-1x-|
E|-22222222--------|----|

Ending
G|----------------|----|
D|----------------|----|
A|-222-45---5-----|-1x-|
E|--------33-5555-|----|

G|-------------------|----|
D|-------------------|----|
A|-222-45------5-----|-1x-|
E|--------3~-33-5555-|----|

G|-------------------------------|----|
D|-------------------------------|----|
A|-222-45---5--------------------|-1x-|
E|--------33-5555-22222222-33335-|----|

G|-------|----|
D|-------|----|
A|-2~~~~-|-1x-|
E|-------|----|
Добавлено: 12.05.2012
Другие материалы по этой песне:
  • Аккорды и текст

Страница создана 12.05.2012
http://primanota.ru/bigwig/time-bomb-chords.htm
Привет, Гость.
Предлагаем пройти революционный курс по гитаре.
Подарок от PrimaNota.Ru, забирай!