PrimaNota.ru - самый крупный в мире бесплатный архив песенных текстов, аккордов, табулатур и нот


Bigwig - The Girl In The Green Jacket - текст песни, бас-таба, видео

Регистрация Запомнить меня
Войти через:  Facebook Google Twitter Vk Yandex Mail.ru

Bigwig - The Girl In The Green Jacket - текст песни, бас-таба, видео

Печатать
Просмотров: 149
- Bigwig - The Girl In The Green Jacket
- Tabbed by: Pacu, bassist from a brasilian punk rock band called PunkAss.
- Really cool song to play. Listen to the song to get this tab right.


__________
Intro – Voice and guitar – NO BASS

Verse I [00:15]
G|---------------|----|---------|----|
D|----4~---------|----|---4-----|----|
A|-5~----2~------|-1x-|-5---2---|-1x-|
E|----------3~5~-|----|-------3-|----|

Guitar Solo
G|-------------------------------------|----|
D|-------------------------------------|----|
A|-55555555----------------------------|-2x-|
E|----------33333333-55555555-33335555-|----|

Verse II
G|-----------------------------------------------------|----|
D|---------------4-44444-------------------------------|----|
A|-5-55555-5-5-7---------7-5-4-2-22222-2-2-4---23---47-|-1x-|
E|-------------------------------------------35---57---|----|

G|---------------------------------------------|----|
D|---------------4-44444-----------------------|----|
A|-5-55555-5-5-7---------7-5-4-2-22222-2-2-4---|-1x-|
E|-------------------------------------------3-|----|

Guitar Solo
G|-------------------------------------|----|
D|-------------------------------------|----|
A|-55555555----------------------------|-2x-|
E|----------33333333-55555555-33335555-|----|

Verse III
***[If you listen to this verse closer you'll notice that there's a mistake on it! Haha.
don't know if it was made by John or by whoever recorded this song. So im tabbing this
as it is on the song but if you cover this song someday with a band I guess you must
like “verse II”.]***
G|--------------------------------------------------|----|
D|---------------4-44444---*bass---*----------------|----|
A|-5-55555-5-5-7-----------*stops--*---2222---------|-1x-|
E|-------------------------*working*-------33335555-|----|

G|---------------------------------------------|----|
D|---------------4-44444-----------------------|----|
A|-5-55555-5-5-7---------7-5-4-2-22222-2-2-4---|-1x-|
E|-------------------------------------------3-|----|

“The girl in the green jacket”
G|-------------------------------------|----|
D|-------------------------------------|----|
A|-55555555----------------------------|-1x-|
E|----------33333333-55555555-33335555-|----|

G|------------------------------------------|----|
D|------------------------------------------|----|
A|-55555555----------------------------5~~~-|-1x-|
E|----------33333333-55555555-33335555------|----|

Bridge I
G|-----------------------------------|----|
D|-----------------------------------|----|
A|---------------5~~~~---------------|-1x-|
E|-3~~~~--5~~~~---------3~~~~--5~~~~-|----|

“The girl in the green jacket”
G|-------------------------------------|----|
D|-------------------------------------|----|
A|-55555555----------------------------|-2x-|
E|----------33333333-55555555-33335555-|----|

Ending
G|------------------------------------------|----------|
D|------------------------------------------|-Until----|
A|-55555555----------------------------5~~~-|-the-end!-|
E|----------33333333-55555555-33335555------|----------|
Добавлено: 04.04.2012
Другие материалы по этой песне:
  • Аккорды и текст

Страница создана 04.04.2012
http://primanota.ru/bigwig/the-girl-in-the-green-jacket-chords.htm
Привет, Гость.
Предлагаем пройти революционный курс по гитаре.
Подарок от PrimaNota.Ru, забирай!